Song name
# A B C D E F G H I J K L M N O P Q R S T U V W X Y Z

Misc Unsigned Bands - Criminal Chaos - Hells Fall tab

e|0-------------0---------------0------------------0-------------------------|
B|---------------------------------------------------------------------------|
G|---------------------------------------------------------------------------|
D|--0-------0-------0-------0--------0---------0------0----------------------|
A|----0---0-----------0---0------------0-----0----------0---0---0------------|
E|------0---------------5-----------------3---------------0-----7------------|

e|0----------0---------0----------0----------0-------------------------------|
B|---------------------------------------------------------------------------|
G|---------------------------------------------------------------------------|
D|----5-----------5---------5------------------------------------------------|
A|------5-------5---------5----------0---------------------------------------|
E|7-------7--8------7--5-------5--3----3--2--0-------------------------------|

Tap to rate this tab
 
# A B C D E F G H I J K L M N O P Q R S T U V W X Y Z