Song name
# A B C D E F G H I J K L M N O P Q R S T U V W X Y Z

Misc Unsigned Bands - The Rara Avis - Thanks For Nothing tab

Guitar 1
e|--0---0---9---0---0--------------|
B|--7---9---9---0---0--------------|
G|--8---7---9---6---4--------------|
D|--6---9---7---6---2--------------|
A|--7-----------4---0--------------|
E|------------------0--------------|x2

(finger pluck)
e|-----------------------------|
B|--7-------5---4--------------|
G|--8---7---4---4--------------|
D|------6----------------------|
A|--7---7---4---0--------------|
E|-----------------------------|x2

verse 1
e|--0---0---0---0--------------|
B|--7---0---5---4--------------|
G|--8---7---4---4--------------|
D|--6---6---2---2--------------|
A|--7---7---4---0--------------|
E|--x---x---x---x--------------|x2


e|--------------------------------|
B|--------------------------------|
G|--------------------------------|
D|-----2--------------------------|
A|-2/4---4-2----------------------|
E|--------------------------------|

chorus
e|--0---0----0---0--------------|
B|--7---12---0---0--------------|
G|--8---13---9---4--------------|
D|--6---11---9---2--------------|
A|--7---12---x---0--------------|
E|--x---x----9---0--------------|x2


e|--0--
B|--7--
G|--8--
D|--6--
A|--7--
E|--x--x5 (ring out last one)

e|-0--
B|-7--
G|-8--
D|----
A|----
E|----

chorus
e|--0---0----0---0--------------|
B|--7---12---0---0--------------|
G|--8---13---9---4--------------|
D|--6---11---9---2--------------|
A|--7---12---x---0--------------|
E|--x---x----9---0--------------|x4


e|--0--
B|--7--
G|--8--
D|--6--
A|--7--
E|--x-- (ring out...whole bridge build up is on this chord)


chorus
e|--0---0----0---0--------------|
B|--7---12---0---0--------------|
G|--8---13---9---4--------------|
D|--6---11---9---2--------------|
A|--7---12---x---0--------------|
E|--x---x----9---0--------------|x2
Tap to rate this tab
 
# A B C D E F G H I J K L M N O P Q R S T U V W X Y Z