Guitaretab - guitar tabs
Song name
# A B C D E F G H I J K L M N O P Q R S T U V W X Y Z

Misc Unsigned Bands - Donovan Woods - My Cousin Has A Grey Cup Ring tab

Highlighted       Show chord diagrams
Capo on 6 (Chords Relative to Capo)

Pluck the stand-alone base notes once then strum the rest of the chord a few times.
Play the D in the main rift for twice as long as the C and G. Similarly hold the G at 
cousin has a Grey Cup RingĒ and the Em and the G after the Em in the Bridge for two beats.

Main Rift:

       D	       C	      G
e|-----2--------3-------3-----|
B|-----3--------3-------3-----|
G|-----2--------0-------0-----| X3
D|--0--0--------2-------0-----|
A|-----------3--3-------2-----|
E|-------------------3--3-----|


    C			  C       G
e|-----3---------------3--------3------3----|
B|-----3---------------3--------3------3----|
G|-----0---------------0--------0------0----|
D|--2--2---------------2--------0------0----|
A|-----3------------3--3--------2------2----|
E|---------------------------3--3---3--3----|
 My Cousin Has a Grey Cup Ring

Bridge
   Em
e|----0----0--------------------------------------|
B|----0----0--------------------------------------|
G|----0----0--------------------------------------|
D|----2----2--------------------------------------|
A|----2----2--------------------------------------|
E|--0-0----0--------------------------------------|


Intro (play the main rift Once)
[ Tab from: http://www.guitaretab.com/m/misc-unsigned-bands/103915.html ]
D					 C	   G
Of all the things Iíll never do
D	C		G
I have to pass them half to you
D	C		G
Oh I canít play and I canít sing
C	C		G
But my cousin has a Grey Cup Ring

And Iíve never even seen the thing
But Iím told itís as big as a tire swing
And Iíve heard of all the prestige that it brings
My cousin has a Grey Cup Ring

Instrumental (Main Rift)

And at the family gatherings
Heís Grandmaís favorite living thing
She tugs upon her apron string

My cousin has a Grey Cup Ring (X2)

Bridge

Em		G
And oh I know
	  C		   G
Iím a wasted(?) size
    C	   G      Em
But I turn out all right
  G
I know
	   C		  G			  C		  G
That a country farm makes a throwing arm
           C         G
And he can paint the barn
		  C	    G
Reach the smoke alarm
		C	    G
Heís got winning charm
	 D	  C
Heís made, made

(Go back to main Rift, play once before starting next verse)

Of all the things Iíll never see
Iíd have to tell you honestly
That Iíve got a fairly good baseball swing
But my Cousin has a Grey Cup Ring

Of all the things I want in life
Well heís got a car and a beard and a wife
And heís not jealous of the way I sing
But Iím jealous of his Grey Cup Ring
Iím jealous of the prestige that it brings.

http://www.myspace.com/donovanwoods
Related for Donovan Woods - My Cousin Has A Grey Cup Ring tab