Song name
# A B C D E F G H I J K L M N O P Q R S T U V W X Y Z

Misc Unsigned Bands - The Show - Make Me Say tab

Help us improve GuitareTab! Take a short survey!
I love this band and this song!!!

Mike Guitar:
|-----5-----5---5---2-----2---2--------------------------------------------|
|------3-----3---3---3-----3--3--------------------------------------------|
|-------4-----4-------4-----4-4--------------------------------------------|
|--------------------------------------------------------------------------|
|--------------------------------------------------------------------------|
|--------------------------------------------------------------------------|

Brad Guitar:
|----------------------------------------------------------------------------|
|----------------------------------------------------------------------------|
|------------------------------------7-7-7-7-7-7-7-7-7-7-7-7-7-7-------------|
|------------------------------------7-7-7-7-7-7-7-7-7-7-7-7-7-7-------------|
|------------------------------------5-5-5-5-5-5-5-5-5-5-5-5-5-5-------------|
|----------------------------------------------------------------------------|
Related for The Show - Make Me Say tab