Song name
# A B C D E F G H I J K L M N O P Q R S T U V W X Y Z

Misc Unsigned Bands - Locomondo - Liubi Liubi I Love You tab

|----------------------------------------------------------------------|
|----------------------------------------------------------------------|
|----------------------------------------------------------------------|
|--10/11---11/13---14--14--14--14/16---14---11-11----------------------|
|----------------------------------------------------------------------|
|----------------------------------------------------------------------|

|----------------------------------------------------------------------|
|----------------------------------------------------------------------|
|-----------------------13-14-15--14-13-11/13--------------------------|
|--13/14---14/16-------------------------------------------------------|
|----------------------------------------------------------------------|
|----------------------------------------------------------------------|

|----------------------------------------------------------------------|
|----------------------------------------------------------------------|
|--9--11/13--13--13---11---9/11--11--11--------------------------------|
|----------------------------------------------------------------------|
|----------------------------------------------------------------------|
|----------------------------------------------------------------------|

|----------------------------------------------------------------------|
|----------------------------------------------------------------------|
|--8-9/11--11--11--9--8----9/8/6---------------------------------------|
|----------------------------------------------------------------------|
|----------------------------------------------------------------------|
|----------------------------------------------------------------------|

|-----------------------------------------------------------------------|
|--9--12--9--7--5--7/9-----7--------------------------------------------|
|-----------------------------------------------------------------------|
|-----------------------------------------13--13-13-11--9---11----------|
|-----------------------------------------------------------------------|
|-----------------------------------------------------------------------|
Tap to rate this tab
# A B C D E F G H I J K L M N O P Q R S T U V W X Y Z