Song name
# A B C D E F G H I J K L M N O P Q R S T U V W X Y Z

Misc Unsigned Bands - Avian - First Flight tab

Tuning Drop D (D,a,d,g,b,e)
Intro/(Clean):
e||-----|
b||-----|
g||-----|
d||--5--|
a||-5--3|
D||0--1-|x3
Verse (distorted):
e|-----|
b|-----|
g|-----|
d|--5--|
a|-5--3|
D|0--1-|x6
Chorus (distorted):
e|-------------|
b|-------------|
g|-------------|
d|11-117-74-268|
a|11-117-74-268|
D|11-117-74-268|x2

e|----------|
b|----------|
g|----------|
d|----------|
a|-2h3---3p1|
D|0---3-0---|x2
Repeat Verse
Repeat Chorus x2
Bridge (ditorted):
e|------------|
b|---2h4---4p2|
g|------------|
d|2h4---4p2---|
a|------------|
D|------------|x2
Solo (heavily distorted):
e|-----------------------------------------|
b|-----------------------------------------|
g|12B-12-----------------------------------|
d|------12-124-11121112-9-7b-12v-14v-7b-5B\|
a|-----------------------------------------|
D|-----------------------------------------|
Repeat Verse
Repeat Chorus x2
Repeat Bridge
Outro:
e||--------|
b||--------|
g||----5---|
d||--5-5--3|
a||o-5--1-3|                          3
D||0----1--|x3 (use tremlobar on last 3)
Tap to rate this tab
# A B C D E F G H I J K L M N O P Q R S T U V W X Y Z