Song name
# A B C D E F G H I J K L M N O P Q R S T U V W X Y Z

Misc Unsigned Bands - The Elites - Riding The Winds tab

e|-------0--------1--------2--------3---|
B|------1-1------1-1------3-3------3-3--|
G|-----2---2----2---1----2---2----0---0-|
D|----2-----2--3-----3--0-----0--0-----0|
A|---0--------0--------0--------2-------|
E|--0--------0--------0--------3--------|

e|-------0--------1--------2--------0---|
B|------1-1------1-1------3-3------0-0--|
G|-----2---2----2---1----2---2----1---1-|
D|----2-----2--3-----3--0-----0--2-----2|
A|---0--------0--------0--------2-------|
E|--0--------0--------0--------0--------|

Play this two times.
Tap to rate this tab
# A B C D E F G H I J K L M N O P Q R S T U V W X Y Z