Song name
# A B C D E F G H I J K L M N O P Q R S T U V W X Y Z

Misc Unsigned Bands - Claude Gagnon - The Frog Blues tab

                                The Frog Blues                                  


                                                                   Claude Gagnon
Guitar



     Q    E  Q    E     Q.     Q.        E  E  E  E  E  E     Q    E  E  Q     
E||--0----0--7----7--|--5-------------|--0-----0--7--0--7--|--5---------------|
B||------------------|--3------2------|--------------------|-------3--0--2----|
G||--0---------------|----------------|-----0--------------|------------------|
D||------------------|----------------|--------------------|------------------|
A||------------------|--0-------------|--------------------|--0---------------|
E||--0---------------|----------------|--0-----------------|------------------|


  Q    E  Q    E     Q.     Q.        E  E  E  Q    E     H.              
--5----5--0----5--|--3------0------|--3--0----------2--|--0-------------||
--1---------------|--0-------------|--------3--0-------|----------------||
--5---------------|----------------|--3--------2-------|--0------------*||
------------------|----------------|-------------------|---------------*||
--0---------------|----------------|--3--------2-------|----------------||
------------------|--0-------------|-------------------|--0-------------||


  E  E  E  E  E  E     E  E  E  E  E  E     E  E  E  E  E  E   
--------------------|--------------------|--------------------|
-----0--------0-----|-----3--3--2-----2--|-----0--------0-----|
-----0--------0-----|-----0--0--0-----0--|-----0--------0-----|
--------------------|--------------------|--------------------|
-----------------2--|--0-----------0-----|-----------------2--|
--0-----2--3--------|--------------------|--0-----2--3--------|


  E  E  E  Q.        E  E  E  E  E  E     E  E  E  E  E  E   
------------------|--------------------|-----3--3-----------|
-----3--3--2------|-----1--------1-----|-----3--3-----------|
-----0--0--0------|-----0--------0-----|--------------------|
------------------|--------------------|-----------2--0-----|
--0---------------|--0-----2--0--------|-----------------2--|
------------------|-----------------3--|--0-----------------|


  E  E  E  E  E  E     Q.     E  E  E     E  E  E  E  E  E   
--------------------|---------3--3--0--|--0--------7-----0--|
-----1--------1-----|---------3--3-----|-----0--------------|
-----0--------0-----|------------------|--------0-----0-----|
--------------------|------------------|--------------------|
--0-----2--0--------|------------------|--------------------|
-----------------3--|--0---------------|--0-----------------|


  E  E  E  E  E  E     E  E  E  E  E  E     H.              E  E  E  E  E  E   
--5-----------------|--0-----0--7--5--3--|--5------------|--5--0--3--5-----5--|
-----3--0--2--------|--------------------|---------------|--------------1-----|
--------------------|-----0--------------|---------------|--5-----------5-----|
--------------------|--------------------|---------------|--------------------|
--0-----------0--0--|--------------------|--0------------|--0-----------------|
--------------------|--0-----------------|---------------|--------------------|


  E  E  E  Q    E     E  E  E  E  E  E     H.              E  E  E  E  E  E   
--3--2--3--0----0--|--3-----0--2--------|--0------------|-----0--------0-----|
--0----------------|-----------------0--|--0------------|-----0--------0--0--|
-------------------|-----3--------2-----|--0------------|-----------0--------|
-------------------|--------------------|---------------|--2-----4-----------|
-------------------|--3--------2--------|---------------|--------------------|
--0----------------|--------------------|--0------------|--------------------|


  E  E  E  E  E  E     E  E  E  E  E  E     E  E  E  Q.      
-----0--0--0-----0--|-----0--------0-----|-----0--0--0------|
-----3--3--2-----1--|-----0--------0--0--|-----3--3--2------|
--2-----------2-----|-----------0--------|--2--------2------|
--------------------|--2-----4-----------|------------------|
--------------------|--------------------|------------------|
--------------------|--------------------|------------------|


  E  E  E  E  E  E     E  E  E  E  E  E     E  E  E  E  E  E   
-----0--------0-----|-----0--------0--0--|-----0--------0-----|
-----1--------1-----|-----3--------3--3--|-----1--0-----1-----|
--2-----0--2-----0--|--------------------|--2--------2-----0--|
--------------------|--2-----------------|--------------------|
--------------------|--------------------|--------------------|
--------------------|--------3--0--------|--------------------|


              >                    
  H        E  E                    
-----------0--0--|---------------||
-----------3--3--|---------------||
-----------------|---------------||
--2--------------|---------------||
-----------------|---------------||
-----------------|---------------||




Duration Legend
---------------
W - whole
H - half
Q - quarter
E - 8th
S - 16th
T - 32nd
X - 64th
. - note dotted
|-n-|  - n-tuplets


Tablature Legend
----------------
L - tied note
x - dead note
g - grace note
(n) - ghost note
> - accentuded note
NH - natural harmonic
AH - artificial harmonic
TH - tapped harmonic
SH - semi harmonic
PH - pitch harmonic
h - hammer on
p - pull off
b - bend
br - bendRelease
pb - preBend
pbr - preBendRelease
brb - bendReleaseBend
\n/ - tremolo bar dip
\n - tremolo bar dive
-/n - tremolo bar Release up
/n\ - tremolo bar inverted dip
/n - tremolo bar return
-\n - tremolo bar Release down
S - shift slide
s - legato slide
/ -  slide into from below or out of upwards
\ -  slide into from above or out of downwards
~ - vibrato
W - wide vibrato
tr - trill
TP - tremolo picking
T - tapping
S - slap
P - pop
< - fade in
^ - brush up
v - brush down
Tap to rate this tab
# A B C D E F G H I J K L M N O P Q R S T U V W X Y Z