Song name
# A B C D E F G H I J K L M N O P Q R S T U V W X Y Z

Misc Unsigned Bands - Sea Of Decay - Untitled tab

tuning:drop C (DAFCGC)
tempo: fast (160.00)

|key|
 x=palm mute

1|---------------------------------------------------------------|
2|---------------------------------------------------------------|
3|---------------------------------------------------------------|
4|------------------------------------------0-0-0----------------|
5|------------9-------------------9---------0-0-0----------------|
6|--7--9--10-----10--9--7--9--10-----10--9--0-0-0----------------|
                                            x x x
1|---------------------------------------------------------------|
2|---------------------------------------------------------------|
3|--------------------------------------------10-12-13-----------|
4|------------------------------------9-10-12--------------------|
5|------------9---------------8-10-11----------------------------|
6|--7--9--10-----10--9-7-8-10------------------------------------|


1|----------------------------------------------------------------|
2|------------------------------10-9-7----------------------------|
3|-------------------------------------10-9-7---------------------|
4|------------------------0-0-0---------------10-9-7--------------|
5|------------9-----------0-0-0----------------------10-9-7-------|
6|--7--9--10-----10--9----0-0-0-----------------------------------|
                          x x x
Tap to rate this tab
# A B C D E F G H I J K L M N O P Q R S T U V W X Y Z