Song name
# A B C D E F G H I J K L M N O P Q R S T U V W X Y Z

Misc Unsigned Bands - The Kachinas - Knight Beheading Is Always A Foul Game tab

e|-------------------------------------------------------|
b|-------------------------------------------------------|
g|101010----101010----101010----101010-------------------|
d|-------------------------------------------------------|
a|121212-0--121212-0--121212-0--121212-0-----------------|
D|0-0-0--0--0-0-0--0--0-0-0--0--0-0-0--0-----------------|
         .         .         .         .
e|-------------------------------------------------------|
b|-------------------------------------------------------|
g|9-9-9-----9-9-9-----9-9-9-----9-9-9--------------------|
d|-------------------------------------------------------|
a|111111-0--111111-0--111111-0--111111-0-----------------|
D|0-0-0--0--0-0-0--0--0-0-0--0--0-0-0--0-----------------|
         .         .         .         .
e|-------------------------------------------------------|
b|-------------------------------------------------------|
g|101010----101010----101010----101010-------------------|
d|-------------------------------------------------------|
a|121212-0--121212-0--121212-0--121212-0-----------------|
D|0-0-0--0--0-0-0--0--0-0-0--0--0-0-0--0-----------------|
         .         .         .         .
e|-------------------------------------------------------|
b|-------------------------------------------------------|
g|9-9-9-----9-9-9-----9-9-9-----9-9-9--------------------|
d|-------------------------------------------------------|
a|111111-0--111111-0--111111-0--111111-0-----------------|
D|0-0-0--0--0-0-0--0--0-0-0--0--0-0-0--0-----------------|
         .         .         .         .
e|-------------------------------------------------------|
b|-------------------------------------------------------|
g|----------------------------------------121415---------|
d|-0~---0~---0~---0------------------12-14---------------|
a|-0~---0~---0~---0--------------------------------------|
D|-0~---0~---0~---0-00000000-0-0-0-0---------------------|
                  . ........   . . .             
e|-------------------------------------------------------|
b|-------------------------------------------------------|
g|------------------151412-------------------------------|
d|------------------------1514------------------12-14----|
a|-------------------------------------------------------|
D|00000000-0-0-0-0-------------00000000-0-0-0-0----------|
  ........   . . .             ........   . . . 
e|-------------------------------------------------------|
b|-------------------------------------------------------|
g|121415------------------151412-----7~------------------|
d|------------------------------1514---------------------|
a|-----------------------------------5~---888888888888888|
D|-------00000000-0-0-0-0------------0~---888888888888888|
         ........   . . .
e|-------------------------------------------------------|
b|-------------------------------------------------------|
g|-------------------------------------------------------|
d|-------------------------------------------------------|
a|810101010101010101010101010101010----------------------|
D|810101010101010101010101010101010-0-000000-0-0-0-0-0000|
                                    . ...... . . . . ....
e|-------------------------------------------------------|
b|-------------------------------------------------------|
g|-------------------------------------------------------|
d|-------------------------------------------------------|
a|------888888888888888810101010101010101010101010101010-|
D|0-0-0-888888888888888810101010101010101010101010101010-|
  . . .
e|-------------------------------------------------------|
b|-------------------------------------------------------|
g|-------------------------------------------------------|
d|-------------------------------------------------------|
a|----------------------------88888888888888881010101010-|
D|0-000000-0-0-0-0-0000-0-0-0-88888888888888881010101010-|
  . ...... . . . . .... . . .   
    
e|-------------------------------------------------------|
b|-------------------------------------------------------|
g|-------------------------------------------------------|
d|-------------------------------------------------------|
a|1010101010101010101010---------------------------------|
D|1010101010101010101010-0-000000-0-0-0-0-0000-0-0-0-----|
                         . ...... . . . . .... . . .
Tap to rate this tab
# A B C D E F G H I J K L M N O P Q R S T U V W X Y Z