Song name
# A B C D E F G H I J K L M N O P Q R S T U V W X Y Z

Misc Unsigned Bands - The Chocolate - In The Sun tab

Help us improve GuitareTab! Take a short survey!
The Chocolate - In The Sun Tab by Misc Unsigned Bands, www.Ultimate-Guitar.Com

Great song
not too people I dont think have heard of them but I have wanted this tabbed for a while 
I had to do it myself, the lick in the background after the verse I dont know perfect yet

Intro/chorus
e|--------------------------------------------|
B|--------------------------------------------|
G|--------------------------------------------|
D|--------------------------------------------|
A|-2-3-2--2--3-2--2--3-2--2-------------------|
E|0-0----2-2-----3-3-----5-5------------------|

In the sun, nobody shines nobody shines...! Listen for strum pattern
verse
e|--------------------------------------------|
B|--------------------------------------------|
G|--------------------------------------------|
D|222444555777--------------------------------|
A|222444555777--------------------------------|
E|000222333555--------------------------------|
Chorus

solo
e|---------------------------------------------|(x2)
B|---------------------------------------------|
G|---------------------------------------------|
D|---------------------------------------------|
A|---14-12-----------14-12--14-12-10--15-14-12-|
E|12-------15-12--12---------------------------|
Rock on
email me at jt.gala@gmail.com
for any ?'s
Related for The Chocolate - In The Sun tab