Guitaretab - guitar tabs
Song name
# A B C D E F G H I J K L M N O P Q R S T U V W X Y Z

Misc Unsigned Bands - Tripled - Slutt tab

-------------------------------------------------------------------------------
			     Slutt - Tripled
-------------------------------------------------------------------------------
Tabbed by:STDayton
Email:stdayton@tripledband.com

Tuning:C# standard

C#|-----------------------------------------------------------------------------|
Ab|---------------13------------13------------------12-------------12-----------|
E |-----------------------------------------------------------------------------|
B |-----10-------------10--------------12----------------12--------------X16----|
Gb|----------12-------------12-----------------0----------------0---------------|
C#|-----------------------------------------------------------------------------|
[ Tab from: http://www.guitaretab.com/m/misc-unsigned-bands/104209.html ]
C#|-----------------------------------15---17------------15----17------------|
Ab|------------6-------------------------------13------------------12--------|
E |--------------------------------------------------------------------------|
B |-----5---8------------------------------------------------------------X16-|
Gb|--------------------------------------------------------------------------|
C#|--------------------------------------------------------------------------|

Tripled is a band out of Orion Illinois we are into metal progressive trip death 
and pete steele

Hit us up check us out at Tripledband.com

| /  slide up
| \  slide down
| h  hammer-on
| p  pull-off
| ~  vibrato
| +  harmonic
| x  Mute note
===========================================================================
Related for Tripled - Slutt tab
Advertisement will be closed in 10 seconds