Song name
# A B C D E F G H I J K L M N O P Q R S T U V W X Y Z

Misc Unsigned Bands - Karl Mohr - Simple tab

-------------------------------------------------------------------------------
			     Intro to SImple- Karl Mohr
-------------------------------------------------------------------------------
Tabbed by:
Email:

Tuning:

e|-------------------------------------------------------------------------|
B|-------------------------------------------------------------------------|
G|-------------------------------------------------------------------------|
D|--5--55-------------9--99------------------------------------------------|
A|--3--33--5--555555--7--77--2--222222-------------------------------------|
E|---------3--333333---------0--000000-------------------------------------|

e|-------------------------------------------------------------------------|
B|-------------------------------------------------------------------------|
G|-------------------------------------------------------------------------|
D|--5--55-------------9--99------------------------------------------------|
A|--3--33--5--555555--7--77--2--222222-------------------------------------|
E|---------3--333333---------0--000000-------------------------------------|
Tap to rate this tab
# A B C D E F G H I J K L M N O P Q R S T U V W X Y Z