Song name
# A B C D E F G H I J K L M N O P Q R S T U V W X Y Z

Misc Unsigned Bands - The Films - Belt Loops tab

----------------------------------------------------------------------------
			     Belt loops - The films
----------------------------------------------------------------------------
Tabbed by: polio23
Email: coolperson111@aol.com

Tuning: standard
main riff come in after bass
e|--------------------------------------------------------------------------|
B|--------------------------------------------------------------------------|
G|------------- 44----------------------------------------------------------|
D|-77-----44--- 44-X4-22----------------------------------------------------|
A|-77-X4--44-X4-22----22-X4-------------------------------------------------|
E|-55-----22----------00----------------------------------------------------|
chorus
e|-222-------------------------------------------------------------|
B|-233-X4----------------------------------------------------------|
G|-222----4--------------------------------------------------------|
D|--------4-X16-2-------play this twice-second time end with--7b---|
A|--------2-----2-X16----------------------------------------------|
E|--------------0--------------------------------------------------|
solo
e|7-7b-5-5b-4-4b-2-2-9-9b-7-7b-5-5b-4-4-12-12b-10-10b-9-9b-7h9h10p9-7h9h10p9-|
B|---------------------------------------------------------------------------|
G|---------------------------------------------------------------------------|
D|---------------------------------------------------------------------------|
A|---------------------------------------------------------------------------|
E|---------------------------------------------------------------------------|


| /  slide up
| \  slide down
| h  hammer-on
| p  pull-off
| ~  vibrato
| +  harmonic
| x  Mute note
===============================================================================
Tap to rate this tab
# A B C D E F G H I J K L M N O P Q R S T U V W X Y Z