Guitaretab - guitar tabs
Song name
# A B C D E F G H I J K L M N O P Q R S T U V W X Y Z

Misc Unsigned Bands - Cut Off Your Hands - Oh Girl tab

-------------------------------------------------------------------------------
			     Oh Girl  Cut Off Your Hands
-------------------------------------------------------------------------------
Tabbed by: Aussiedude777 

Tuning: Standard
Clean Guitar

I hope this is clear and it sounds good to you as this is my first tab. 
If you have any corrections please comment and please rate...

E|-9--9--9--9--9--9-9----s7--7--7--7--7--7--7--------------------------------|
B|-9--9--9--9--9--9-9----s7--7--7--7--7--7--7--------------------------------|
G|-9--9--9--9--9--9-9-x2-s7--7--7--7--7--7--7x2-----------------------------|
D|11-11-11-11-11-11-11----s9--9--9--9--9--9--9--------------------------------|
A|11-11-11-11-11-11-11----s9--9--9--9--9--9--9--------------------------------|
E|-9--9--9--9--9--9-9----s7--7--7--7--7--7--7--------------------------------|


If you listen to the song you can pick up the strumming pattern.
Repeat this for the intro and for all the verses.


The chorus is using the same kind of tab but strumming a lot faster than the verses.

[ Tab from: http://www.guitaretab.com/m/misc-unsigned-bands/104237.html ]
E|-9-------7-------9--------7-------9-------7-------9------------------------|
B|-9-------7-------9--------7-------9-------7-------9------------------------|
G|-9-x8---7-x8---9-x24---7-x8---9-x8---7-x8---9-x8--------------------|
D|11-------9------11--------9------11-------9------11------------------------|
A|11-------9------11--------9------11-------9------11------------------------|
E|-9-------7-------9--------7-------9-------7-------9------------------------|


Solo

E|---------------------------------------------------------------------------|
B|---------------------------------------------------------------------------|
G|------------7-7-----7-7-7-7----------------7-7------11-9-8-7---------------|
D|---9-9-9-9-------9------------9---9-9-9-9-------9-9------------------------|
A|---------------------------------------------------------------------------|
E|---------------------------------------------------------------------------|

E|---------------------------------------------------------------------------|
B|---------------------------------------------------------------------------|
G|--------------11-11----11-11-11-11------------------11-11-------15-13-12-11|
D|--13-13-13-13-------13--------------13---13-13-13-13-------13-13-----------|
A|---------------------------------------------------------------------------|
E|---------------------------------------------------------------------------|

Near the end of the song you just strum the chorus really slowly. 
==========================================================================
Related for Cut Off Your Hands - Oh Girl tab