Song name
# A B C D E F G H I J K L M N O P Q R S T U V W X Y Z

Misc Unsigned Bands - Dear Juliet - Lullaby tab

Help us improve GuitareTab! Take a short survey!
Artist: Dear Juliet
Song: Lullaby
Standard Tuning

Finger picked
Intro, verse 1, post chorus, verse 2, and outro
First part
/----------------------------------------------|
/------3---------3----------3---------3--------|
/--0-----0--2-------2--0-------0--2-----2------|
/----0---------0----------0---------0----------|
/----------------------------------------------|
/--3--------2----------3----------2------------|
Second part
/----------------------------------------------|
/-------3--------3----------1----------3-------|
/--0------0--0------0--0-------0--2------2-----|
/-----0--------0----------0----------0---------|
/--3---------2---------0-----------------------|
/---------------------------------2------------|


Pre- chorus
Play first part then add fill
/-----------------------------------------------|
/------3---------3---------1-----1----2---------|
/--0------0--0-----0--0-------0-----0-----------|
/----0---------0---------0------0-------0-------|
/--3---------2--------0-------------------------|
/-----------------------------------------------|

Chorus
/--3---3---3---2---3---3---3---2---x-x-x---3-x-3-----|
/--3---3---3---3---3---3---3---3---3-x-3---3-x-3-----|
/--0---0---0---2---0---0---0---2---0-x-0---2-x-2-----|
/--2---0---2---0---2---0---2---0---2-x-2---0-x-0-----|
/--3---2---2---0---3---2---2---0---3-x-3---0-x-0-----|
/------3---0-----------3---0-------------------------|


you can put it all together...
the outro is the just the intro played slower
Related for Dear Juliet - Lullaby tab