Song name
# A B C D E F G H I J K L M N O P Q R S T U V W X Y Z

Misc Unsigned Bands - Regardstoyesturday - Lets Play Count The Bodies tab

Let's Play Count The Bodies
RegardsToYesturday
The Un-Named E.P.

Tuning:
DADGBE

Guitar 1
Intro:

Part I:

e|-------------------------------------|
B|-------------------------------------|
G|-------------------------------------|
D|----------7p0------------------------|
A|------8p0-----8p0-7p0----------------|
D|----------------------6p0-8p0-7p0----|
                                        5x

e|----------------------------------------------|
B|----------------------------------------------|
G|----------------------------------------------|
D|-0-000-333\66--0-000-000-00-000--333\66--3----|
A|-0-000-333\66--0-000-000-00-000--333\66--3----|
D|-0-000-333\66--0-000-000-00-000--333\66--3----|
pm------        pm------------------------------|

Part II:

e|-------------------------------------------------------------------------|
B|-------------------------------------------------------------------------|
G|-------------------------------------------------------------------------|
D|------------------------------------------------h3p0-h3p0-h3p0-h3p0-h3p0-|
A|-------------------------h3p0-h3p0-h3p0-h3p0-h3p0------------------------|
D|-h3p0-h3p0-h3p0-h3p0-h3p0------------------------------------------------|

e|---------------------------------------------------|
B|---------------------------------------------------|
G|---------------------------------------------------|
D|-h2p0-h2p0-h2p0-h2p0--2p0------2p0------2p0--------|
A|-------------------------3p0------3p0------3p0-----|
D|----------------------------4p0------4p0------4p0--|
                                                       2x

Guitar 2:

Part I:

e|-----------------------------|
B|----------5*\7*\9*----12*----|
G|-----------------------------|
D|-----------------------------|
A|-8*---7*---------------------|
D|-----------------------------|
                                 5x

e|---------------------------------------------------------|
B|-2p0------1p0----------------------2p0------1p0----------|
G|----3p0------2p0----------------------3p0------2p0-------|
D|-------4p0------3p0--0000-0-0-0000-------4p0------3p0----|
A|---------------------0000-0-0-0000-----------------------|
D|---------------------0000-0-0-0000-----------------------|
                      pm-----------------------------------|                       2x

Part II:

e|-------------------------------------------------------------------------|
B|-------------------------------------------------------------------------|
G|-------------------------------------------------------------------------|
D|------------------------------------------------h3p0-h3p0-h3p0-h3p0-h3p0-|
A|-------------------------h3p0-h3p0-h3p0-h3p0-h3p0------------------------|
D|-h3p0-h3p0-h3p0-h3p0-h3p0------------------------------------------------|

e|---------------------------------------------------|
B|---------------------------------------------------|
G|---------------------------------------------------|
D|-h2p0-h2p0-h2p0-h2p0--2p0------2p0------2p0--------|
A|-------------------------3p0------3p0------3p0-----|
D|----------------------------4p0------4p0------4p0--|
                                                       2x

*=tremelo
\=down slide
p=pull off
h=hammer on


If you couldn't tell this song is grindcore and very fast pace. Tell me what you think 
it. These are posted because my band RegardsToYesturday is looking for a new lead 
So if your into southern grindcore/jazz/metal hit me up. And enjoy the tabs guys :)
Tap to rate this tab
# A B C D E F G H I J K L M N O P Q R S T U V W X Y Z