Song name
# A B C D E F G H I J K L M N O P Q R S T U V W X Y Z

Misc Unsigned Bands - Untitled Dong 2 - When Fortune Fails tab

----------------------------------------------------------------------------
			     SONG NAME - When Fortune Fails
----------------------------------------------------------------------------
Tabbed by:reaper102590
Email:reaper2561@yahoo.com

Tuning:Drop C

D|---------------------------------------------------------------------------|
A|---------------------------------------------------------------------------|
F|---------------------------------------------------------------------------|
C|---------------------------------------------------7h8p0h5h7p0h3h5p0h2h3p0-|
G|-----5-----5---5-----7---8---7~----3-----3---3-----------------------------|
C|-0-0---0-0---0---0-0---0---0---0-0---0-0---0---0-0-------------------------|
   . .   . .   .   . .   .   .   . .   . .   .   . .            play 4 times

D|----------------------------------------------------------------------|
A|----------------------------------------------------------------------|
F|-----------------10101010----8-8-8-8----------------------------------|
C|-----3-3-3-3-----x-x-x-x-----x-x-x-x-----3-3-3-3-----5-5-5-5-5-5-5-5--|
G|-0-0-3-3-3-3-0-0-8-8-8-8-0-0-6-6-6-6-0-0-3-3-3-3-0-0-5-5-5-5-5-5-5-5--|
C|-0-0-3-3-3-3-0-0---------0-0---------0-0-3-3-3-3-0-0-5-5-5-5-5-5-5-5--|
   . .         . .         . .         . .         . .
D|---------------|\-|
A|------------------| \
F|------------------|  \____ play 4 times
C|-7-7-7-7-7-7-7----|  /
G|-7-7-7-7-7-7-7----| /
C|-7-7-7-7-7-7-7----|

                             Play all twice
============================================================================

D|-1414141414141414121212121212121210101010101010108-8-8-8-8-8-8-8-5--5--5--|
A|-x-x-x-x-x-x-x-x-x-x-x-x-x-x-x-x-x-x-x-x-x-x-x-x-x-x-x-x-x-x-x-x-x--x--x--|
F|-12121212121212129-9-9-9-9-9-9-9-7-7-7-7-7-7-7-7-5-5-5-5-5-5-5-5-2--2--2--|
C|--------------------------------------------------------------------------|
G|--------------------------------------------------------------------------|
C|--------------------------------------------------------------------------|

D|-5--4--4--4--4--5--5--5--5--\-|
A|-x--x--x--x--x--x--x--x--x----| \
F|-2--1--1--1--1--2--2--2--2----|  \_______ Play twice
C|------------------------------|  /
G|------------------------------| /
C|------------------------------|

D|---------------------------------------------------------------------------|
A|---------------------------------------------------------------------------|
F|---------------------------------------------------------------------------|
C|---------------------------------------------------7h8p0h5h7p0h3h5p0h2h3p0-|
G|-----5-----5---5-----7---8---7~----3-----3---3-----------------------------|
C|-0-0---0-0---0---0-0---0---0---0-0---0-0---0---0-0-------------------------|
   . .   . .   .   . .   .   .   . .   . .   .   . .              Play twice
D|----------------------------------------------------------------------|
A|----------------------------------------------------------------------|
F|-----------------10101010----8-8-8-8----------------------------------|
C|-----3-3-3-3-----x-x-x-x-----x-x-x-x-----3-3-3-3-----5-5-5-5-5-5-5-5--|
G|-0-0-3-3-3-3-0-0-8-8-8-8-0-0-6-6-6-6-0-0-3-3-3-3-0-0-5-5-5-5-5-5-5-5--|
C|-0-0-3-3-3-3-0-0---------0-0---------0-0-3-3-3-3-0-0-5-5-5-5-5-5-5-5--|
   . .         . .         . .         . .         . .

D|---------------|
A|---------------|
F|---------------|
C|-7-7-7-7-7-7-7-|
G|-7-7-7-7-7-7-7-|
C|-7-7-7-7-7-7-7-|

D|------------------------------------------------------|
A|------------------------------------------------------|
F|------------------------------------------------------|
C|-----------------------7---8---10---8~----------------|
G|-----5---7---8---7~---------------------5---7---8---7~|
C|-0-0---0---0---0---0-0---0---0----0---0---0---0---0---|
   . .   .   .   .   . .   .   .    .   .   .   .   .   Play twice

D|-1414141414141414121212121212121210101010101010108-8-8-8-8-8-8-8-5--5--5--|
A|-x-x-x-x-x-x-x-x-x-x-x-x-x-x-x-x-x-x-x-x-x-x-x-x-x-x-x-x-x-x-x-x-x--x--x--|
F|-12121212121212129-9-9-9-9-9-9-9-7-7-7-7-7-7-7-7-5-5-5-5-5-5-5-5-2--2--2--|
C|--------------------------------------------------------------------------|
G|--------------------------------------------------------------------------|
C|--------------------------------------------------------------------------|

D|-5--4--4--4--4--5--5--5--5--\-|
A|-x--x--x--x--x--x--x--x--x----| \
F|-2--1--1--1--1--2--2--2--2----|  \_______ Play 4 times
C|------------------------------|  /
G|------------------------------| /
C|------------------------------|

D|-5----8----4----|
A|-x----x----x----|
F|-2----5----1----|
C|----------------|
G|----------------|
C|----------------|
Let Ring**********
============================================================================
| /  slide up
| \  slide down
| h  hammer-on
| p  pull-off
| ~  vibrato
| +  harmonic
| x  Mute note
============================================================================
Tap to rate this tab
# A B C D E F G H I J K L M N O P Q R S T U V W X Y Z