Song name
# A B C D E F G H I J K L M N O P Q R S T U V W X Y Z

Misc Unsigned Bands - One Night Stand - My Life Is Over tab

Help us improve GuitareTab! Take a short survey!
#----------------------------------PLEASE NOTE---------------------------------#
#This file is the author's own work and represents their interpretation of the #
#song. You may only use this file for private study, scholarship, or research. #
#------------------------------------------------------------------------------##

                                 MY LIFE IS OVER
                         As recorded by One Night Stand
                  (From the 2008 Album THE FINAL DISAPPEARANCE)

Words by James Beach and Zac Worrall

Music by James Beach
Arranged by James Beach
Transcribed by James Beach

Gtr I (E A D G B E) - 'Rhythm Guitar - Distortion (James Sutton)'
Gtr II (E A D G B E) - 'Lead - Overdrive (James Beach)'

   Intro
    Q=168
    B5
   4/4
    Gtr I
     E  E  E  E  E  E  E  E    E  E  E  E  E  E  E  E
||--------------------------|-------------------------|
||o-------------------------|-------------------------|
||---4--4--4--4--4--4--4--4-|--4--4--4--4--4--4--4--4-|
||---4--4--4--4--4--4--4--4-|--4--4--4--4--4--4--4--4-|
||o--2--2--2--2--2--2--2--2-|--2--2--2--2--2--2--2--2-|
||--------------------------|-------------------------|
|
|   Gtr II
|    E  E  E  E  E  E  E  E    E  E  E  E  E  E  E  E
||--------------------------|-------------------------|
||o-------------------------|-------------------------|
||--16-16-16-16-16-16-16-16-|-18-18-18-18-18-18-18-18-|
||--------------------------|-------------------------|
||o-14-14-14-14-14-14-14-14-|-16-16-16-16-16-16-16-16-|
||--------------------------|-------------------------|


  G#5
   E  E  E  E  E  E  E  E    E  E  E  E  E  E  E  E
|-------------------------|-------------------------|
|-------------------------|-------------------------|
|-------------------------|-------------------------|
|--6--6--6--6--6--6--6--6-|--6--6--6--6--6--6--6--6-|
|--6--6--6--6--6--6--6--6-|--6--6--6--6--6--6--6--6-|
|--4--4--4--4--4--4--4--4-|--4--4--4--4--4--4--4--4-|
|
|  E  E  E  E  E  E  E  E    E  E  E  E  E  E  E  E
|-------------------------|-------------------------|
|-------------------------|-------------------------|
|-16-16-16-16-16-16-16-16-|-18-18-18-18-18-18-18-18-|
|-------------------------|-------------------------|
|-14-14-14-14-14-14-14-14-|-16-16-16-16-16-16-16-16-|
|-------------------------|-------------------------|


  F#5
   E  E E  E  E  E E  E    E  E E  E  E  E E  E
|-----------------------|-----------------------|
|-----------------------|-----------------------|
|-----------------------|-----------------------|
|--4--4-4--4--4--4-4--4-|--4--4-4--4--4--4-4--4-|
|--4--4-4--4--4--4-4--4-|--4--4-4--4--4--4-4--4-|
|--2--2-2--2--2--2-2--2-|--2--2-2--2--2--2-2--2-|
|
|  E  E E  E  E  E E  E    E  E E  E  E  E E  E
|-----------------------|-----------------------|
|-----------------------|-----------------------|
|-16-16---16-16-16---16-|-18-18---18-18-18---18-|
|-----------------------|-----------------------|
|-14-14---14-14-14---14-|-16-16---16-16-16---16-|
|-----------------------|-----------------------|


  E5
   E  E  E  E  E  E  E  E    E  E  E  E  E  E  E  E
|-------------------------|--------------------------||
|-------------------------|-------------------------o||
|-------------------------|--------------------------||
|--2--2--2--2--2--2--2--2-|--2--2--2--2--2--2--2--2--||
|--2--2--2--2--2--2--2--2-|--2--2--2--2--2--2--2--2-o||
|--0--0--0--0--0--0--0--0-|--0--0--0--0--0--0--0--0--||
|
|  PM|      PM---|      PM-----|      PM---|      PM
|  E  E  E  E  E  E  E  E    E  E  E  E  E  E  E  E
|-------------------------|--------------------------||
|-------------------------|-------------------------o||
|-16-16-16-16-16-16-16-16-|-16-16-16-16-16-16-16-16--||
|-------------------------|--------------------------||
|-14-14-14-14-14-14-14-14-|-14-14-14-14-14-14-14-14-o||
|-------------------------|--------------------------||


   Verse
    B5                         G#5
     W          +W              W          +W
||------------|--------------|-----------|--------------|
||o-----------|--------------|-----------|--------------|
||---4--------|-(4)----------|-----------|--------------|
||---4--------|-(4)----------|--6--------|-(6)----------|
||o--2--------|-(2)----------|--6--------|-(6)----------|
||------------|--------------|--4--------|-(4)----------|
|
|    W           H      H       W           H      H
||------------|--------------|-----------|--------------|
||o-----------|--------------|-----------|--------------|
||--16--------|-20-----18----|-16--------|-20-----18----|
||------------|--------------|-----------|--------------|
||o-14--------|-18-----16----|-14--------|-18-----16----|
||------------|--------------|-----------|--------------|


  F#5
   E  E  E  E  E  E  E  E    E  E  E  E  E  E  E  E
|-------------------------|-------------------------|
|-------------------------|-------------------------|
|-------------------------|-------------------------|
|--4--4--4--4--4--4--4--4-|--4--4--4--4--4--4--4--4-|
|--4--4--4--4--4--4--4--4-|--4--4--4--4--4--4--4--4-|
|--2--2--2--2--2--2--2--2-|--2--2--2--2--2--2--2--2-|
|
|  E  E  E  E  E  E  E  E    E  E  E  E  E  E  E  E
|-------------------------|-------------------------|
|-------------------------|-------------------------|
|-16-16-16-16-16-16-16-16-|-15-15-15-15-15-15-15-15-|
|-------------------------|-------------------------|
|-14-14-14-14-14-14-14-14-|-13-13-13-13-13-13-13-13-|
|-------------------------|-------------------------|


  E5
   E  E  E  E  E  E  E  E    E  E  E  E  E  E  E  E
|-------------------------|--------------------------||
|-------------------------|-------------------------o||
|-------------------------|--------------------------||
|--2--2--2--2--2--2--2--2-|--2--2--2--2--2--2--2--2--||
|--2--2--2--2--2--2--2--2-|--2--2--2--2--2--2--2--2-o||
|--0--0--0--0--0--0--0--0-|--0--0--0--0--0--0--0--0--||
|
|  E  E  E  E  E  E  E  E    E  E  E  E  E  E  E  E
|-------------------------|--------------------------||
|-------------------------|-------------------------o||
|-16-16-16-16-16-16-16-16-|-18-18-18-18-18-18-18-18--||
|-------------------------|--------------------------||
|-14-14-14-14-14-14-14-14-|-16-16-16-16-16-16-16-16-o||
|-------------------------|--------------------------||


   Chorus
    B5
     E  E  E  E  E  E  E  E    E  E  E  E  E  E  E  E
||--------------------------|-------------------------|
||o-------------------------|-------------------------|
||---4--4--4--4--4--4--4--4-|--4--4--4--4--4--4--4--4-|
||---4--4--4--4--4--4--4--4-|--4--4--4--4--4--4--4--4-|
||o--2--2--2--2--2--2--2--2-|--2--2--2--2--2--2--2--2-|
||--------------------------|-------------------------|
|
|    E  E  E  E  E  E  E  E    E  E  E  E  E  E  E  E
||--------------------------|-------------------------|
||o-------------------------|-------------------------|
||--16-16-16-16-16-16-16-16-|-16-16-16-16-18-18-18-18-|
||--------------------------|-------------------------|
||o-14-14-14-14-14-14-14-14-|-14-14-14-14-16-16-16-16-|
||--------------------------|-------------------------|


  F#5
   E  E  E  E  E  E  E  E    E  E  E  E  E  E  E  E
|-------------------------|--------------------------|
|-------------------------|--------------------------|
|-------------------------|--------------------------|
|--4--4--4--4--4--4--4--4-|--4--4--4--4--4--4--4--4--|
|--4--4--4--4--4--4--4--4-|--4--4--4--4--4--4--4--4--|
|--2--2--2--2--2--2--2--2-|--2--2--2--2--2--2--2--2--|
|
|  E  E  E  E  E  E  E  E    E  E  E  E  E  E  E  E
|-------------------------|--------------------------|
|-------------------------|--------------------------|
|-15-15-15-15-15-15-15-15-|-15-15-15-15-18-18-18-18--|
|-------------------------|--------------------------|
|-13-13-13-13-13-13-13-13-|-13-13-13-13-16-16-16-16--|
|-------------------------|--------------------------|


  G#5
   E  E  E  E  E  E  E  E    E  E  E  E  E  E  E  E
|-------------------------|-------------------------|
|-------------------------|-------------------------|
|-------------------------|-------------------------|
|--6--6--6--6--6--6--6--6-|--6--6--6--6--6--6--6--6-|
|--6--6--6--6--6--6--6--6-|--6--6--6--6--6--6--6--6-|
|--4--4--4--4--4--4--4--4-|--4--4--4--4--4--4--4--4-|
|
|  E  E  E  E  E  E  E  E    E  E  E  E  E  E  E  E
|-------------------------|-------------------------|
|-------------------------|-------------------------|
|-16-16-16-16-16-16-16-16-|-16-16-16-16-18-18-18-18-|
|-------------------------|-------------------------|
|-14-14-14-14-14-14-14-14-|-14-14-14-14-16-16-16-16-|
|-------------------------|-------------------------|


  E5
   E  E  E  E  E  E  E  E    E  E  E  E  E  E  E  E
|-------------------------|--------------------------||
|-------------------------|-------------------------o||
|-------------------------|--------------------------||
|--2--2--2--2--2--2--2--2-|--2--2--2--2--2--2--2--2--||
|--2--2--2--2--2--2--2--2-|--2--2--2--2--2--2--2--2-o||
|--0--0--0--0--0--0--0--0-|--0--0--0--0--0--0--0--0--||
|
|  E  E  E  E  E  E  E  E    E  E  E  E  E  E  E  E
|-------------------------|--------------------------||
|-------------------------|-------------------------o||
|-15-15-15-15-15-15-15-15-|-13-13-13-13-13-13-13-13--||
|-------------------------|--------------------------||
|-13-13-13-13-13-13-13-13-|-11-11-11-11-11-11-11-11-o||
|-------------------------|--------------------------||


   Intro
    B5
     E  E  E  E  E  E  E  E    E  E  E  E  E  E  E  E
||--------------------------|-------------------------|
||o-------------------------|-------------------------|
||---4--4--4--4--4--4--4--4-|--4--4--4--4--4--4--4--4-|
||---4--4--4--4--4--4--4--4-|--4--4--4--4--4--4--4--4-|
||o--2--2--2--2--2--2--2--2-|--2--2--2--2--2--2--2--2-|
||--------------------------|-------------------------|
|
|    E  E  E  E  E  E  E  E    E  E  E  E  E  E  E  E
||--------------------------|-------------------------|
||o-------------------------|-------------------------|
||--16-16-16-16-16-16-16-16-|-18-18-18-18-18-18-18-18-|
||--------------------------|-------------------------|
||o-14-14-14-14-14-14-14-14-|-16-16-16-16-16-16-16-16-|
||--------------------------|-------------------------|


  G#5
   E  E  E  E  E  E  E  E    E  E  E  E  E  E  E  E
|-------------------------|--------------------------|
|-------------------------|--------------------------|
|-------------------------|--------------------------|
|--6--6--6--6--6--6--6--6-|--6--6--6--6--6--6--6--6--|
|--6--6--6--6--6--6--6--6-|--6--6--6--6--6--6--6--6--|
|--4--4--4--4--4--4--4--4-|--4--4--4--4--4--4--4--4--|
|
|  E  E  E  E  E  E  E  E    E  E  E  E  E  E  E  E
|-------------------------|--------------------------|
|-------------------------|--------------------------|
|-16-16-16-16-16-16-16-16-|-18-18-18-18-18-18-18-18--|
|-------------------------|--------------------------|
|-14-14-14-14-14-14-14-14-|-16-16-16-16-16-16-16-16--|
|-------------------------|--------------------------|


  F#5
   E  E E  E  E  E E  E    E  E E  E  E  E E  E
|-----------------------|-----------------------|
|-----------------------|-----------------------|
|-----------------------|-----------------------|
|--4--4-4--4--4--4-4--4-|--4--4-4--4--4--4-4--4-|
|--4--4-4--4--4--4-4--4-|--4--4-4--4--4--4-4--4-|
|--2--2-2--2--2--2-2--2-|--2--2-2--2--2--2-2--2-|
|
|  E  E E  E  E  E E  E    E  E E  E  E  E E  E
|-----------------------|-----------------------|
|-----------------------|-----------------------|
|-16-16---16-16-16---16-|-18-18---18-18-18---18-|
|-----------------------|-----------------------|
|-14-14---14-14-14---14-|-16-16---16-16-16---16-|
|-----------------------|-----------------------|


  E5
   E  E  E  E  E  E  E  E    E  E  E  E  E  E  E  E
|-------------------------|--------------------------||
|-------------------------|-------------------------o||
|-------------------------|--------------------------||
|--2--2--2--2--2--2--2--2-|--2--2--2--2--2--2--2--2--||
|--2--2--2--2--2--2--2--2-|--2--2--2--2--2--2--2--2-o||
|--0--0--0--0--0--0--0--0-|--0--0--0--0--0--0--0--0--||
|
|  PM|      PM---|      PM-----|      PM---|      PM
|  E  E  E  E  E  E  E  E    E  E  E  E  E  E  E  E
|-------------------------|--------------------------||
|-------------------------|-------------------------o||
|-16-16-16-16-16-16-16-16-|-16-16-16-16-16-16-16-16--||
|-------------------------|--------------------------||
|-14-14-14-14-14-14-14-14-|-14-14-14-14-14-14-14-14-o||
|-------------------------|--------------------------||


   Verse
    B5
     E  E  E  E  E  E  E  E    E  E  E  E  E  E  E  E
||--------------------------|-------------------------|
||o-------------------------|-------------------------|
||---4--4--4--4--4--4--4--4-|--4--4--4--4--4--4--4--4-|
||---4--4--4--4--4--4--4--4-|--4--4--4--4--4--4--4--4-|
||o--2--2--2--2--2--2--2--2-|--2--2--2--2--2--2--2--2-|
||--------------------------|-------------------------|
|
|    E  E  E  E  E  E  E  E    E  E  E  E  E  E  E  E
||--------------------------|-------------------------|
||o-------------------------|-------------------------|
||--16-16-16-16-16-16-16-16-|-20-20-20-20-18-18-18-18-|
||--------------------------|-------------------------|
||o-14-14-14-14-14-14-14-14-|-18-18-18-18-16-16-16-16-|
||--------------------------|-------------------------|


  G#5
   E  E  E  E  E  E  E  E    E  E  E  E  E  E  E  E
|-------------------------|--------------------------|
|-------------------------|--------------------------|
|-------------------------|--------------------------|
|--6--6--6--6--6--6--6--6-|--6--6--6--6--6--6--6--6--|
|--6--6--6--6--6--6--6--6-|--6--6--6--6--6--6--6--6--|
|--4--4--4--4--4--4--4--4-|--4--4--4--4--4--4--4--4--|
|
|  E  E  E  E  E  E  E  E    E  E  E  E  E  E  E  E
|-------------------------|--------------------------|
|-------------------------|--------------------------|
|-16-16-16-16-16-16-16-16-|-20-20-20-20-18-18-18-18--|
|-------------------------|--------------------------|
|-14-14-14-14-14-14-14-14-|-18-18-18-18-16-16-16-16--|
|-------------------------|--------------------------|


  F#5
   E  E  E  E  E  E  E  E    E  E  E  E  E  E  E  E
|-------------------------|-------------------------|
|-------------------------|-------------------------|
|-------------------------|-------------------------|
|--4--4--4--4--4--4--4--4-|--4--4--4--4--4--4--4--4-|
|--4--4--4--4--4--4--4--4-|--4--4--4--4--4--4--4--4-|
|--2--2--2--2--2--2--2--2-|--2--2--2--2--2--2--2--2-|
|
|  E  E  E  E  E  E  E  E    E  E  E  E  E  E  E  E
|-------------------------|-------------------------|
|-------------------------|-------------------------|
|-16-16-16-16-16-16-16-16-|-15-15-15-15-15-15-15-15-|
|-------------------------|-------------------------|
|-14-14-14-14-14-14-14-14-|-13-13-13-13-13-13-13-13-|
|-------------------------|-------------------------|


  E5
   E  E  E  E  E  E  E  E    E  E  E  E  E  E  E  E
|-------------------------|--------------------------||
|-------------------------|-------------------------o||
|-------------------------|--------------------------||
|--2--2--2--2--2--2--2--2-|--2--2--2--2--2--2--2--2--||
|--2--2--2--2--2--2--2--2-|--2--2--2--2--2--2--2--2-o||
|--0--0--0--0--0--0--0--0-|--0--0--0--0--0--0--0--0--||
|
|  E  E  E  E  E  E  E  E    E  E  E  E  E  E  E  E
|-------------------------|--------------------------||
|-------------------------|-------------------------o||
|-16-16-16-16-16-16-16-16-|-18-18-18-18-18-18-18-18--||
|-------------------------|--------------------------||
|-14-14-14-14-14-14-14-14-|-16-16-16-16-16-16-16-16-o||
|-------------------------|--------------------------||


   Chorus
    B5
     E  E  E  E  E  E  E  E    E  E  E  E  E  E  E  E
||--------------------------|-------------------------|
||o-------------------------|-------------------------|
||---4--4--4--4--4--4--4--4-|--4--4--4--4--4--4--4--4-|
||---4--4--4--4--4--4--4--4-|--4--4--4--4--4--4--4--4-|
||o--2--2--2--2--2--2--2--2-|--2--2--2--2--2--2--2--2-|
||--------------------------|-------------------------|
|
|    E  E  E  E  E  E  E  E    E  E  E  E  E  E  E  E
||--------------------------|-------------------------|
||o-------------------------|-------------------------|
||--16-16-16-16-16-16-16-16-|-16-16-16-16-18-18-18-18-|
||--------------------------|-------------------------|
||o-14-14-14-14-14-14-14-14-|-14-14-14-14-16-16-16-16-|
||--------------------------|-------------------------|


  F#5
   E  E  E  E  E  E  E  E    E  E  E  E  E  E  E  E
|-------------------------|--------------------------|
|-------------------------|--------------------------|
|-------------------------|--------------------------|
|--4--4--4--4--4--4--4--4-|--4--4--4--4--4--4--4--4--|
|--4--4--4--4--4--4--4--4-|--4--4--4--4--4--4--4--4--|
|--2--2--2--2--2--2--2--2-|--2--2--2--2--2--2--2--2--|
|
|  E  E  E  E  E  E  E  E    E  E  E  E  E  E  E  E
|-------------------------|--------------------------|
|-------------------------|--------------------------|
|-15-15-15-15-15-15-15-15-|-15-15-15-15-18-18-18-18--|
|-------------------------|--------------------------|
|-13-13-13-13-13-13-13-13-|-13-13-13-13-16-16-16-16--|
|-------------------------|--------------------------|


  G#5
   E  E  E  E  E  E  E  E    E  E  E  E  E  E  E  E
|-------------------------|-------------------------|
|-------------------------|-------------------------|
|-------------------------|-------------------------|
|--6--6--6--6--6--6--6--6-|--6--6--6--6--6--6--6--6-|
|--6--6--6--6--6--6--6--6-|--6--6--6--6--6--6--6--6-|
|--4--4--4--4--4--4--4--4-|--4--4--4--4--4--4--4--4-|
|
|  E  E  E  E  E  E  E  E    E  E  E  E  E  E  E  E
|-------------------------|-------------------------|
|-------------------------|-------------------------|
|-16-16-16-16-16-16-16-16-|-16-16-16-16-18-18-18-18-|
|-------------------------|-------------------------|
|-14-14-14-14-14-14-14-14-|-14-14-14-14-16-16-16-16-|
|-------------------------|-------------------------|


  E5
   E  E  E  E  E  E  E  E    E  E  E  E  E  E  E  E
|-------------------------|--------------------------||
|-------------------------|-------------------------o||
|-------------------------|--------------------------||
|--2--2--2--2--2--2--2--2-|--2--2--2--2--2--2--2--2--||
|--2--2--2--2--2--2--2--2-|--2--2--2--2--2--2--2--2-o||
|--0--0--0--0--0--0--0--0-|--0--0--0--0--0--0--0--0--||
|
|  E  E  E  E  E  E  E  E    E  E  E  E  E  E  E  E
|-------------------------|--------------------------||
|-------------------------|-------------------------o||
|-15-15-15-15-15-15-15-15-|-13-13-13-13-13-13-13-13--||
|-------------------------|--------------------------||
|-13-13-13-13-13-13-13-13-|-11-11-11-11-11-11-11-11-o||
|-------------------------|--------------------------||


   Breakdown
    B5                G#5
     E  E  E E H       E  E  E E H
||------------------|-----------------|
||o-----------------|-----------------|
||---4--4--4--------|-----------------|
||---4--4--4--------|--6--6--6--------|
||o--2--2--2--------|--6--6--6--------|
||------------------|--4--4--4--------|
|
|    E  E  E E H       E  E  E E H
||------------------|-----------------|
||o-----------------|-----------------|
||--16-16-16--------|-18-18-18--------|
||------------------|-----------------|
||o-14-14-14--------|-16-16-16--------|
||------------------|-----------------|


  F#5                    E5
   Q   Q   Q   E  E    E E  Q   Q   E E
|-------------------|---------------------||
|-------------------|--------------------o||
|-------------------|---------------------||
|--4---4---4---4--4-|--4-2--2---2---2-2---||
|--4---4---4---4--4-|--4-2--2---2---2-2--o||
|--2---2---2---2--2-|--2-0--0---0---0-0---||
|
|  Q   Q   Q   E  E    Q    Q   Q   Q
|-------------------|---------------------||
|-------------------|--------------------o||
|-16--16--16--16-16-|-15---15--13--13-----||
|-------------------|---------------------||
|-14--14--14--14-14-|-13---13--11--11----o||
|-------------------|---------------------||


  B5                   G#5
             PM--|                PM--|
   E  E  Q   E E E E    E  E  Q   E E E E
|--------------------|--------------------|
|--------------------|--------------------|
|--4--4--4---4-4-4-4-|--------------------|
|--4--4--4---4-4-4-4-|--6--6--6---6-6-6-6-|
|--2--2--2---2-2-2-2-|--6--6--6---6-6-6-6-|
|--------------------|--4--4--4---4-4-4-4-|
|
|  E  E  H.             E  E  H.
|--------------------|--------------------|
|--------------------|--------------------|
|-16-16-16-----------|-18-18-18-----------|
|--------------------|--------------------|
|-14-14-14-----------|-16-16-16-----------|
|--------------------|--------------------|


  F#5                          E5
   Q     Q     Q     E  E    E  E  Q     Q     E  E
|-------------------------|-------------------------|
|-------------------------|-------------------------|
|-------------------------|-------------------------|
|--4-----4-----4-----4--4-|--4--2--2-----2-----2--2-|
|--4-----4-----4-----4--4-|--4--2--2-----2-----2--2-|
|--2-----2-----2-----2--2-|--2--0--0-----0-----0--0-|
|
|  E  E  E  E  E  E  E  E    E  E  E  E  E  E  E  E
|-------------------------|-------------------------|
|-------------------------|-------------------------|
|-16-16-16-16-16-16-16-16-|-15-15-15-15-13-13-13-13-|
|-------------------------|-------------------------|
|-14-14-14-14-14-14-14-14-|-13-13-13-13-11-11-11-11-|
|-------------------------|-------------------------|


  B5                        G#5
               PM---|                    PM---|
   E  E  Q     E  E  E  E    E  E  Q     E  E  E  E
|-------------------------|-------------------------|
|-------------------------|-------------------------|
|--4--4--4-----4--4--4--4-|-------------------------|
|--4--4--4-----4--4--4--4-|--6--6--6-----6--6--6--6-|
|--2--2--2-----2--2--2--2-|--6--6--6-----6--6--6--6-|
|-------------------------|--4--4--4-----4--4--4--4-|
|
|  E  E  E  E  E  E  E  E    E  E  E  E  E  E  E  E
|-------------------------|-------------------------|
|-------------------------|-------------------------|
|-16-16-16-16-16-16-16-16-|-18-18-18-18-18-18-18-18-|
|-------------------------|-------------------------|
|-14-14-14-14-14-14-14-14-|-16-16-16-16-16-16-16-16-|
|-------------------------|-------------------------|


  F#5                          E5
   E  E  E  E  E  E  E  E    E  E  E  E  E  E  E  E
|-------------------------|-------------------------|
|-------------------------|-------------------------|
|-------------------------|-------------------------|
|--4--4--4--4--4--4--4--4-|--4--2--2--2--2--2--2--2-|
|--4--4--4--4--4--4--4--4-|--4--2--2--2--2--2--2--2-|
|--2--2--2--2--2--2--2--2-|--2--0--0--0--0--0--0--0-|
|
|  E  E  E  E  E  E  E  E    E  E  E  E  E  E  E  E
|-------------------------|-------------------------|
|-------------------------|-------------------------|
|-16-16-16-16-16-16-16-16-|-15-15-15-15-13-13-13-13-|
|-------------------------|-------------------------|
|-14-14-14-14-14-14-14-14-|-13-13-13-13-11-11-11-11-|
|-------------------------|-------------------------|


   Out-Chorus
    B5
     E  E  E  E  E  E  E  E    E  E  E  E  E  E  E  E
||--------------------------|-------------------------|
||o-------------------------|-------------------------|
||---4--4--4--4--4--4--4--4-|--4--4--4--4--4--4--4--4-|
||---4--4--4--4--4--4--4--4-|--4--4--4--4--4--4--4--4-|
||o--2--2--2--2--2--2--2--2-|--2--2--2--2--2--2--2--2-|
||--------------------------|-------------------------|
|
|    E  E  E  E  E  E  E  E    E  E  E  E  E  E  E  E
||--------------------------|-------------------------|
||o-------------------------|-------------------------|
||--16-16-16-16-16-16-16-16-|-16-16-16-16-18-18-18-18-|
||--------------------------|-------------------------|
||o-14-14-14-14-14-14-14-14-|-14-14-14-14-16-16-16-16-|
||--------------------------|-------------------------|


  F#5
   E  E  E  E  E  E  E  E    E  E  E  E  E  E  E  E
|-------------------------|--------------------------|
|-------------------------|--------------------------|
|-------------------------|--------------------------|
|--4--4--4--4--4--4--4--4-|--4--4--4--4--4--4--4--4--|
|--4--4--4--4--4--4--4--4-|--4--4--4--4--4--4--4--4--|
|--2--2--2--2--2--2--2--2-|--2--2--2--2--2--2--2--2--|
|
|  E  E  E  E  E  E  E  E    E  E  E  E  E  E  E  E
|-------------------------|--------------------------|
|-------------------------|--------------------------|
|-15-15-15-15-15-15-15-15-|-15-15-15-15-18-18-18-18--|
|-------------------------|--------------------------|
|-13-13-13-13-13-13-13-13-|-13-13-13-13-16-16-16-16--|
|-------------------------|--------------------------|


  G#5
   E  E  E  E  E  E  E  E    E  E  E  E  E  E  E  E
|-------------------------|-------------------------|
|-------------------------|-------------------------|
|-------------------------|-------------------------|
|--6--6--6--6--6--6--6--6-|--6--6--6--6--6--6--6--6-|
|--6--6--6--6--6--6--6--6-|--6--6--6--6--6--6--6--6-|
|--4--4--4--4--4--4--4--4-|--4--4--4--4--4--4--4--4-|
|
|  E  E  E  E  E  E  E  E    E  E  E  E  E  E  E  E
|-------------------------|-------------------------|
|-------------------------|-------------------------|
|-16-16-16-16-16-16-16-16-|-16-16-16-16-18-18-18-18-|
|-------------------------|-------------------------|
|-14-14-14-14-14-14-14-14-|-14-14-14-14-16-16-16-16-|
|-------------------------|-------------------------|


  1.,2.,3.
  E5
   E  E  E  E  E  E  E  E    E  E  E  E  E  E  E  E  4x
|-------------------------|--------------------------||
|-------------------------|-------------------------o||
|-------------------------|--------------------------||
|--2--2--2--2--2--2--2--2-|--2--2--2--2--2--2--2--2--||
|--2--2--2--2--2--2--2--2-|--2--2--2--2--2--2--2--2-o||
|--0--0--0--0--0--0--0--0-|--0--0--0--0--0--0--0--0--||
|
|  E  E  E  E  E  E  E  E    E  E  E  E  E  E  E  E  4x
|-------------------------|--------------------------||
|-------------------------|-------------------------o||
|-15-15-15-15-15-15-15-15-|-13-13-13-13-13-13-13-13--||
|-------------------------|--------------------------||
|-13-13-13-13-13-13-13-13-|-11-11-11-11-11-11-11-11-o||
|-------------------------|--------------------------||


  4.
  E5
   Q     Q  H
|----------------*|
|----------------*|
|----------------*|
|--2-----2-------*|
|--2-----2-------*|
|--0-----0-------*|
|
|  E  E  Q  H
|----------------*|
|----------------*|
|-16-16-16-------*|
|----------------*|
|-14-14-14-------*|
|----------------*|


Duration Legend
---------------
W - whole; H - half; Q - quarter; E - 8th; S - 16th; T - 32nd; X - 64th; a - acciaccatura
+ - note tied to previous; . - note dotted; .. - note double dotted
Uncapitalized letters represent notes that are staccato (1/2 duration)
Irregular groupings are notated above the duration line
Duration letters will always appear directly above the note/fret number it represents the
duration for.  Duration letters with no fret number below them represent rests.  Multi-
bar rests are notated in the form Wxn, where n is the number of bars to rest for.  Low
melody durations appear below the staff

Tablature Legend
----------------
 h   - hammer-on
 p   - pull-off
 b   - bend
 pb  - pre-bend
 r   - bend release (if no number after the r, then release immediately)
 /\  - slide into or out of (from/to "nowhere")
 s   - legato slide
 S   - shift slide
  - natural harmonic
[n]  - artificial harmonic
n(n) - tapped harmonic
 ~   - vibrato
 tr  - trill
 T   - tap
 TP  - trem. picking
 PM  - palm muting
\n/  - tremolo bar dip; n = amount to dip
 \n  - tremolo bar down
 n/  - tremolo bar up
/n\  - tremolo bar inverted dip
 =   - hold bend; also acts as connecting device for hammers/pulls
 <>  - volume swell (louder/softer)
 x   - on rhythm slash represents muted slash
 o   - on rhythm slash represents single note slash

Misc Legend
-----------
 |  - bar
||  - double bar
||o - repeat start
o|| - repeat end
*|  - double bar (ending)
 :  - bar (freetime)
 $  - Segno
 &  - Coda
Tempo markers -  = BPM(8/16=s8/s16), where s8 = swing 8ths, s16 = swing 16ths
Related for One Night Stand - My Life Is Over tab