Song name
# A B C D E F G H I J K L M N O P Q R S T U V W X Y Z

Misc Unsigned Bands - The Finns - Karma tab

====Hey This is My Bands First Song Try it out and see how you like it====

Carter12s@yahoo.com

Title: Karma
Composer: John Finnson
Any Comments Would be Nice

****NOTE**** = This Is Tabbed For a Trio of 2 Acousitcs and One Bass



                   E E E E E E E E   E E E E E E E E   E E E E E E Q
                E|-----------------|-----------------|-----------------|
                B|---1-----1-----1-|-----1-----1-----|-1-----1-----1---|
                G|-----2-----2-----|-2-----2-----0---|---0-----0---0---|
Acoustic Guitar D|-------2---------|---2-----------2-|-----------2-2+--|
                A|-0-----------0---|---------0-------|-----3-------3+--|
                E|-----------------|-----------------|-----------------|
                 |
                 |
                 |
                 |
                 |
                 | E E Q   H
                E|-----------------|-----------------|-----------------|
                B|-----------------|-----------------|-----------------|
                G|-----------------|-----------------|-----------------|
Acoustic Guitar D|-----------------|-----------------|-----------------|
                A|-----------------|-----------------|-----------------|
                E|-----------------|-----------------|-----------------|
                 |
                 |
                 |
                 |
                 |
                 | E E Q   H         Q   Q   H
                G|-----------------|-----------------|-----------------|
                D|-----------------|-----------------|-----------------|
Electric Bass   A|-----------------|-----------------|-----------------|
                E|-----------------|-----------------|-----------------|






   E E E E E E E E   E E E E E E E E   E E Q   Q   Q     E Q   E E E E E
E|-----------------|-----------------|-----------------|-----------------|
B|---1-----1-----1-|-----1-----1-----|-----------------|-----------------|
G|-----2-----0-----|-2-----2-----0---|-----------------|-----------------|
D|-------2---------|---2-----------2-|-----------------|-----------------|
A|-0-----------3---|---------3-------|-3-0-------------|-------7-7-5-----|
E|-----------------|-----------------|---------8---5---|-5-8---------8-8-|
 |
 |
 |
 |
 |
 |                                                       Q   E E E E E E
E|-----------------|-----------------|-----------------|-0---0-0-0-0-0-3+|
B|-----------------|-----------------|-----------------|-1---1-1-1-1-1-1+|
G|-----------------|-----------------|-----------------|-2---2-2-2-2-2-2+|
D|-----------------|-----------------|-----------------|-2-------------2+|
A|-----------------|-----------------|-----------------|-0-------------0+|
E|-----------------|-----------------|-----------------|-----------------|
 |
 |
 |
 |
 |
 | E E E E E E E E   E E E E E E E E   E E Q   H         E E E E E E E E
G|-----------------|-----------------|-----------------|-----------------|
D|-----------------|-----------------|-----------------|-----------------|
A|-0-0-0-0-3-3-3-3-|-0-0-0-0-3-3-3-3-|-3-0-------------|-0-0-0-0-0-0-0-0-|
E|-----------------|-----------------|-----------------|-----------------|






   Q   E S S S SE Q     E E E E E E E E   E E E  E E E E E
E|--------------------|-----------------|------------------|
B|--------------------|-----------------|------------------|
G|--------------------|-----------------|--------7-9-9-7---|
D|--------------------|---------------5-|-7-7-10---------10|
A|-------5-7-5-7--5---|-------7-7-5-5---|------------------|
E|-5---8--------8-----|-5-8-8-----------|------------------|
 |
 |
 |
 |
 |
 | E E E Q      E E E   Q   E E E E E E   E E E  Q   E E E
E|-3-3-3-1------1-1-1+|-0---0-0-0-0-0-3+|-3-3-3--1---1-1-1-|
B|-1-1-1-1------1-1-1+|-1---1-1-1-1-1-1+|-1-1-1--1---1-1-1-|
G|-2-2-2-2------2-2-2+|-0---0-0-0-0-0-0+|-0-0-0--0---0-0-0-|
D|-2------------------|-2-------------2+|-2----------------|
A|-0------------------|-3-------------3+|-3----------------|
E|--------------------|-----------------|------------------|
 |
 |
 |
 |
 |
 | E E E E   E  E E E   E E E E E E E E   E E E  E E E E E
G|--------------------|-----------------|------------------|
D|--------------------|-----------------|------------------|
A|-0-0-0-0---0--0-0-0-|-3-3-3-3-3-3-3-3-|-3-3-3--3-3-3-3-3-|
E|--------------------|-----------------|------------------|






   E  E  E  E  Q    E E   E E E E E E E E   E E E E E E E E   Q   E E E E Q
E|-0--0--0--------------|-3-3-3---1---1-1-|---0-0---0---0---|-3---3-1-1-1-1---|
B|----------------------|-----------------|-----------------|-----------------|
G|----------------------|-----------------|-----------------|-----------------|
D|----------------------|-----------------|-----------------|-----------------|
A|----------------------|-----------------|-----------------|-----------------|
E|-0+-0+-0+-0+-0+---0---|-----------------|-----------------|-----------------|
 |
 |
 |
 |
 |
 | Q     E  E  E  E E E   E E E Q   E E E   Q   E E E E E E   E E E Q   E E E
E|-0-----0--0--0--0-0-3+|-3-3-3-1---1-1-1+|-0---0-0-0-0-0-3+|-3-3-3-1---1-1-1-|
B|-1-----1--1--1--1-1-1+|-1-1-1-1---1-1-1+|-1---1-1-1-1-1-1+|-1-1-1-1---1-1-1-|
G|-2-----2--2--2--2-2-2+|-2-2-2-2---2-2-2+|-0---0-0-0-0-0-0+|-0-0-0-0---0-0-0-|
D|-2------------------2+|-2---------------|-2-------------2+|-2---------------|
A|-0------------------0+|-0---------------|-3-------------3+|-3---------------|
E|----------------------|-----------------|-----------------|-----------------|
 |
 |
 |
 |
 |
 | E  E  E  E  E  E E E   E E E E E E E E   E E E E E E E E   E E E E E E E E
G|----------------------|-----------------|-----------------|-----------------|
D|----------------------|-----------------|-----------------|-----------------|
A|-0--0--0--0--0--0-0-0-|-0-0-0-0-0-0-0-0-|-3-3-3-3-3-3-3-3-|-3-3-3-3-3-3-3-3-|
E|----------------------|-----------------|-----------------|-----------------|






     Q   E E Q   E E   E Q   E E E E E   H       E E E E   Q.     E Q   E E
E||------------------|-----------------|-----------------|------------------|
B||------------------|-----------------|-----------------|------------------|
G||*-----------------|-----------------|-----------------|------------------|
D||*-----------------|-----------------|-----------------|--------------5-7-|
A||--------5-7-----7-|-5---------------|-----------------|-5------7-5-------|
E||--5---8-----------|---8---5-3-0-3-5-|-8-------8-5-5-8-|------------------|
 |
 |
 |
 |
 |
 |   Q   E E E E E E   E E E Q   E E E   Q   E E E E E E   E  E E Q   E E E
E||--0---0-0-0-0-0-3+|-3-3-3-1---1-1-1+|-0---0-0-0-0-0-3+|-3--3-3-1---1-1-1-|
B||--1---1-1-1-1-1-1+|-1-1-1-1---1-1-1+|-1---1-1-1-1-1-1+|-1--1-1-1---1-1-1-|
G||*-2---2-2-2-2-2-2+|-2-2-2-2---2-2-2+|-0---0-0-0-0-0-0+|-0--0-0-0---0-0-0-|
D||*-2-------------2+|-2---------------|-2-------------2+|-2----------------|
A||--0-------------0+|-0---------------|-3-------------3+|-3----------------|
E||------------------|-----------------|-----------------|------------------|
 |
 |
 |
 |
 |
 |   E E E E E E E E   E E E E E E E E   E E E E E E E E   E  E E E E E E E
G||------------------|-----------------|-----------------|------------------|
D||*-----------------|-----------------|-----------------|------------------|
A||*-0-0-0-0-0-0-0-0-|-0-0-0-0-0-0-0-0-|-3-3-3-3-3-3-3-3-|-3--3-3-3-3-3-3-3-|
E||------------------|-----------------|-----------------|------------------|






   H       E E E E   H       S SE E E   H       E E E E   Q.     E Q   E E
E|-----------------|------------------|-----------------|------------------|
B|-----------------|------------------|-----------------|------------------|
G|-----------------|------------------|-----------------|------------------|
D|-7-------7-5-5---|------------5-7-7-|-----------------|--------------5-7-|
A|---------------7-|-5-------7-5------|-----------------|-5------7-5-------|
E|-----------------|------------------|-8-------8-5-5-8-|------------------|
 |
 |
 |
 |
 |
 | Q   E E E E E E   E E E Q    E E E   Q   E E E E E E   E  E E Q   E E E
E|-0---0-0-0-0-0-3+|-3-3-3-1----1-1-1+|-0---0-0-0-0-0-3+|-3--3-3-1---1-1-1-|
B|-1---1-1-1-1-1-1+|-1-1-1-1----1-1-1+|-1---1-1-1-1-1-1+|-1--1-1-1---1-1-1-|
G|-2---2-2-2-2-2-2+|-2-2-2-2----2-2-2+|-0---0-0-0-0-0-0+|-0--0-0-0---0-0-0-|
D|-2-------------2+|-2----------------|-2-------------2+|-2----------------|
A|-0-------------0+|-0----------------|-3-------------3+|-3----------------|
E|-----------------|------------------|-----------------|------------------|
 |
 |
 |
 |
 |
 | E E E E E E E E   E E E E E  E E E   E E E E E E E E   E  E E E E E E E
G|-----------------|------------------|-----------------|------------------|
D|-----------------|------------------|-----------------|------------------|
A|-0-0-0-0-0-0-0-0-|-0-0-0-0-0--0-0-0-|-3-3-3-3-3-3-3-3-|-3--3-3-3-3-3-3-3-|
E|-----------------|------------------|-----------------|------------------|






   H       E E E E   H       S SE E E   H       E E E E   Q.     E Q   E E
E|-----------------|------------------|-----------------|------------------|
B|-----------------|------------------|-----------------|------------------|
G|-----------------|------------------|-----------------|------------------|
D|-7-------7-5-5---|------------5-7-7-|-----------------|--------------5-7-|
A|---------------7-|-5-------7-5------|-----------------|-5------7-5-------|
E|-----------------|------------------|-8-------8-5-5-8-|------------------|
 |
 |
 |
 |
 |
 | Q   E E E E E E   E E E Q    E E E   Q   E E E E E E   E  E E Q   E E E
E|-0---0-0-0-0-0-3+|-3-3-3-1----1-1-1+|-0---0-0-0-0-0-3+|-3--3-3-1---1-1-1-|
B|-1---1-1-1-1-1-1+|-1-1-1-1----1-1-1+|-1---1-1-1-1-1-1+|-1--1-1-1---1-1-1-|
G|-2---2-2-2-2-2-2+|-2-2-2-2----2-2-2+|-0---0-0-0-0-0-0+|-0--0-0-0---0-0-0-|
D|-2-------------2+|-2----------------|-2-------------2+|-2----------------|
A|-0-------------0+|-0----------------|-3-------------3+|-3----------------|
E|-----------------|------------------|-----------------|------------------|
 |
 |
 |
 |
 |
 | E E E E E E E E   E E E E E  E E E   E E E E E E E E   E  E E E E E E E
G|-----------------|------------------|-----------------|------------------|
D|-----------------|------------------|-----------------|------------------|
A|-0-0-0-0-0-0-0-0-|-0-0-0-0-0--0-0-0-|-3-3-3-3-3-3-3-3-|-3--3-3-3-3-3-3-3-|
E|-----------------|------------------|-----------------|------------------|






   H       E E E E   H       S SE E E   E E E E Q   Q     Q   E E Q   E E
E|-----------------|------------------|-----------------|-----------------|
B|-----------------|------------------|-----------------|-----------------|
G|-----------------|------------------|-------2---------|-----------------|
D|-7-------7-5-5---|------------5-7-7-|---2-----2-------|-5-----5-3-----3-|
A|---------------7-|-5-------7-5------|-0---0-------0---|-5---5---3---3---|
E|-----------------|------------------|-----------------|-3-------1-------|
 |
 |
 |
 |
 |
 | Q   E E E E E E   E E E Q    E E E   W                 H       H
E|-0---0-0-0-0-0-3+|-3-3-3-1----1-1-1+|-0---------------|-3-------1-------|
B|-1---1-1-1-1-1-1+|-1-1-1-1----1-1-1+|-1---------------|-0-------1-------|
G|-2---2-2-2-2-2-2+|-2-2-2-2----2-2-2+|-0---------------|-0-------2-------|
D|-2-------------2+|-2----------------|-2---------------|-0-------3-------|
A|-0-------------0+|-0----------------|-3---------------|-2---------------|
E|-----------------|------------------|-----------------|-3---------------|
 |
 |
 |
 |
 |
 | E E E E E E E E   E E E E E  E E E   E E E E E E E E   H       H
G|-----------------|------------------|-----------------|-----------------|
D|-----------------|------------------|-----------------|-----------------|
A|-0-0-0-0-0-0-0-0-|-0-0-0-0-0--0-0-0-|-3-3-3-3-3-3-3-3-|-----------------|
E|-----------------|------------------|-----------------|-3-------1-------|






   E E E Q.     E E   E E E Q   Q   E   E E E E E E Q     H       S SE E E
E|-5-8--------------|-----------------|-----------------|------------------|
B|-----8-5----------|-----------------|-----------------|------------------|
G|--------------5---|-----------------|---5-------------|------------------|
D|----------------5-|-----5---------7-|-7---7---5---5---|------------5-7-7-|
A|------------------|-7-7---5---5-----|-------7---7-----|-5-------7-5------|
E|------------------|-----------------|-----------------|------------------|
 |
 |
 |
 |
 |
 | Q   E E  E E E E   E E E Q   E E E   Q   E E E E E E   E E E Q    E E E
E|-0---0-0--0-0-0-3+|-3-3-3-1---1-1-1-|-0---0-0-0-0-0-3+|-3-3-3-1----1-1-1+|
B|-1---1-1--1-1-1-0+|-0-0-0-1---1-1-1-|-1---1-1-1-1-1-0+|-0-0-0-1----1-1-1+|
G|-0---0-0--0-0-0-0+|-0-0-0-2---2-2-2-|-2---2-2-2-2-2-0+|-0-0-0-2----2-2-2+|
D|-2--------------0+|-----------------|-2-------------0+|------------------|
A|-3--------------2+|-----------------|-0-------------2+|------------------|
E|----------------3-|-----------------|---------------3-|------------------|
 |
 |
 |
 |
 |
 | E E E E  E E E E   E E E E E E E E   E E E E E E E E   E E E E E  E E E
G|------------------|-----------------|-----------------|------------------|
D|------------------|-----------------|-----------------|------------------|
A|-3-3-3-3--3-3-3---|-----------------|-0-0-0-0-0-0-0---|------------------|
E|----------------3-|-3-3-3-1-1-1-1-1-|---------------3-|-3-3-3-1-1--1-1-1-|






   E E E Q.     E E   E E E Q   Q   E   E E E E E E Q     H       S SE E E
E|-5-8--------------|-----------------|-----------------|--------------------||
B|-----8-5----------|-----------------|-----------------|--------------------||
G|--------------5---|-----------------|---5-------------|-------------------*||
D|----------------5-|-----5---------7-|-7---7---5---5---|------------5-7-7--*||
A|------------------|-7-7---5---5-----|-------7---7-----|-5-------7-5--------||
E|------------------|-----------------|-----------------|--------------------||
 |
 |
 |
 |
 |
 | Q   E E  E E E E   E E E Q   E E E   Q   E E E E E E   E E E Q    E E E
E|-0---0-0--0-0-0-3+|-3-3-3-1---1-1-1-|-0---0-0-0-0-0-3+|-3-3-3-1----1-1-1+--||
B|-1---1-1--1-1-1-0+|-0-0-0-1---1-1-1-|-1---1-1-1-1-1-0+|-0-0-0-1----1-1-1+--||
G|-0---0-0--0-0-0-0+|-0-0-0-2---2-2-2-|-2---2-2-2-2-2-0+|-0-0-0-2----2-2-2+-*||
D|-2--------------0+|-----------------|-2-------------0+|-------------------*||
A|-3--------------2+|-----------------|-0-------------2+|--------------------||
E|----------------3-|-----------------|---------------3-|--------------------||
 |
 |
 |
 |
 |
 | E E E E  E E E E   E E E E E E E E   E E E E E E E E   E E E E E  E E E
G|------------------|-----------------|-----------------|--------------------||
D|------------------|-----------------|-----------------|-------------------*||
A|-3-3-3-3--3-3-3---|-----------------|-0-0-0-0-0-0-0---|-------------------*||
E|----------------3-|-3-3-3-1-1-1-1-1-|---------------3-|-3-3-3-1-1--1-1-1---||






   S SS S S S SS S S SS SS S S  S S S S SS S SS S SS SS S S
E|----------------------------|-5-8-5-3-5-------------3-5-8|
B|-----------------------5-5-8|----------5-3-5-----5-3-----|
G|--------------------5-7-----|---------------5-2-5--------|
D|-------------5-7-7-7--------|----------------------------|
A|----5-7-5-7-7---------------|----------------------------|
E|-5-8------------------------|----------------------------|
 |
 |
 |
 |
 |
 | W                            W
E|-0--------------------------|-0--------------------------|
B|-1--------------------------|-1--------------------------|
G|-2--------------------------|-0--------------------------|
D|-2--------------------------|-2--------------------------|
A|-0--------------------------|-3--------------------------|
E|----------------------------|----------------------------|
 |
 |
 |
 |
 |
 | Q      Q      Q      Q       Q       Q     Q      Q
G|----------------------------|----------------------------|
D|----------------------------|----------------------------|
A|-0------0------0------0-----|-3-------3-----3------3-----|
E|----------------------------|----------------------------|






   S S S S S S SS S S SSSS S S  E E SS Q   E E E   E E E H       E
E|-3-5-8-3-5-8-5--------------|--------8---------|-----------------|
B|--------------8-5-5-8-5-----|---8-5--8---8-----|-----------------|
G|---------------------7-7-7-5|-5----7-5-----5---|-7-7-7-7---------|
D|----------------------------|----------------7-|-5-----5---------|
A|----------------------------|------------------|-------5---------|
E|----------------------------|------------------|-----------------|
 |
 |
 |
 |
 |
 | W                            W                  W
E|-3--------------------------|-1----------------|-0---------------|
B|-0--------------------------|-1----------------|-1---------------|
G|-0--------------------------|-2----------------|-2---------------|
D|-0--------------------------|-3----------------|-2---------------|
A|-2--------------------------|------------------|-0---------------|
E|----------------------------|------------------|-----------------|
 |
 |
 |
 |
 |
 | Q       Q      Q     Q       Q   Q    Q   Q     Q   Q   Q   Q
G|----------------------------|------------------|-----------------|
D|----------------------------|-3---3----3---3---|-----------------|
A|----------------------------|------------------|-0---0---0---0---|
E|-3-------3------3-----3-----|------------------|-----------------|






   S S S S SS S SS S SS SS S S  S S SS S SS SS S SSS S SS  E E E Q   E Q
E|-5-8-5-3-5-------------3-5-8|-8-8-5--------------------|-------8---------|
B|----------5-3-5-----5-3-----|------8-8-5---5-5-8------8|-------8---------|
G|---------------5-2-5--------|-----------5-7-----7------|-------5---7-----|
D|----------------------------|--------------------5-7-7-|-7-5-3-----------|
A|----------------------------|--------------------------|-------------5---|
E|----------------------------|--------------------------|-----------------|
 |
 |
 |
 |
 |
 | W                            W                          W
E|-0--------------------------|-3------------------------|-1---------------|
B|-1--------------------------|-0------------------------|-1---------------|
G|-0--------------------------|-0------------------------|-2---------------|
D|-2--------------------------|-0------------------------|-3---------------|
A|-3--------------------------|-2------------------------|-----------------|
E|----------------------------|--------------------------|-----------------|
 |
 |
 |
 |
 |
 | Q       Q     Q      Q       Q      Q     Q     Q       Q   Q   Q   Q
G|----------------------------|--------------------------|-----------------|
D|----------------------------|--------------------------|-3---3---3---3---|
A|-3-------3-----3------3-----|--------------------------|-----------------|
E|----------------------------|-3------3-----3-----3-----|-----------------|






   E E E H       E   Q   H.            Q   Q   Q   Q     H.          Q
E|-----------------|-----------------|-----------------|-----------------|
B|-------1---------|-----1+----------|-1---------------|-----------------|
G|-------2---------|-----------------|-----2-------2+--|-2-----------0---|
D|-5-7-7-2---------|-0---------------|---------2---2+--|-2---------------|
A|-----------------|-----0+----------|-0-----------0+--|-0-----------2---|
E|-----------------|-----------------|-----------------|-----------------|
 |
 |
 |
 |
 |
 | W                 W                 W                 W
E|-0---------------|-----------------|-----------------|-----------------|
B|-1---------------|-----------------|-----------------|-----------------|
G|-2---------------|-2---------------|-2---------------|-2---------------|
D|-2---------------|-2---------------|-2---------------|-2---------------|
A|-0---------------|-0---------------|-0---------------|-0---------------|
E|-----------------|-----------------|-----------------|-----------------|
 |
 |
 |
 |
 |
 | Q   Q   Q   Q     Q   Q   Q   Q     Q   Q   Q   Q     Q   Q   Q   Q
G|-----------------|-----------------|-----------------|-----------------|
D|-----------------|-----------------|-----------------|-----------------|
A|-0---0---0---0---|-0---0---0---0---|-0---0---0---0---|-0---0---0---0---|
E|-----------------|-----------------|-----------------|-----------------|






   H.          Q     H.          Q     H.          Q     H       Q   E E
E|-----------------|-----------------|-----------------|-----------------|
B|-------------0---|-----------------|-----------------|---------0---1-1-|
G|-2---------------|-------------4---|-2-----------0---|-------------0-0-|
D|-0-----------0---|-2-----------4---|-2---------------|-2---------------|
A|-----------------|-0-----------2---|-0-----------2---|-0-------2-------|
E|-----------------|-----------------|-----------------|-----------------|
 |
 |
 |
 |
 |
 | W                 W                 W                 W
E|-----------------|-----------------|-----------------|-----------------|
B|-----------------|-----------------|-----------------|-----------------|
G|-2---------------|-2---------------|-2---------------|-2---------------|
D|-2---------------|-2---------------|-2---------------|-2---------------|
A|-0---------------|-0---------------|-0---------------|-0---------------|
E|-----------------|-----------------|-----------------|-----------------|
 |
 |
 |
 |
 |
 | Q   Q   Q   Q     Q   Q   Q   Q     Q   Q   Q   Q     Q   Q   Q   Q
G|-----------------|-----------------|-----------------|-----------------|
D|-----------------|-----------------|-----------------|-----------------|
A|-0---0---0---0---|-0---0---0---0---|-0---0---0---0---|-0---0---0---0---|
E|-----------------|-----------------|-----------------|-----------------|






   H       Q   Q     Q   Q   H         E E E Q.     E E   E E E Q   Q   E
E|-----------------|-----------------|-5-8--------------|-----------------|
B|-3---------------|-----------------|-----8-5----------|-----------------|
G|-2-------0---2+--|-2---------------|--------------5---|-----------------|
D|-0-------0---2+--|-2---------------|----------------5-|-----5---------7-|
A|---------2---0+--|-0---------------|------------------|-7-7---5---5-----|
E|-----------------|-----------------|------------------|-----------------|
 |
 |
 |
 |
 |
 | W                 W                 Q   E E  E E E E   E E E Q   E E E
E|-----------------|-----------------|-0---0-0--0-0-0-3+|-3-3-3-1---1-1-1-|
B|-----------------|-----------------|-1---1-1--1-1-1-0+|-0-0-0-1---1-1-1-|
G|-2---------------|-2---------------|-0---0-0--0-0-0-0+|-0-0-0-2---2-2-2-|
D|-2---------------|-2---------------|-2--------------0+|-----------------|
A|-0---------------|-0---------------|-3--------------2+|-----------------|
E|-----------------|-----------------|----------------3-|-----------------|
 |
 |
 |
 |
 |
 | Q   Q   Q   Q     Q   Q   Q   Q     E E E E  E E E E   E E E E E E E E
G|-----------------|-----------------|------------------|-----------------|
D|-----------------|-----------------|------------------|-----------------|
A|-0---0---0---0---|-0---0---0---0---|-3-3-3-3--3-3-3---|-----------------|
E|-----------------|-----------------|----------------3-|-3-3-3-1-1-1-1-1-|






   E E E E E E Q     H       S SE E E   E E E Q.     E E   E E E Q   Q   E
E|-----------------|------------------|-5-8--------------|-----------------|
B|-----------------|------------------|-----8-5----------|-----------------|
G|---5-------------|------------------|--------------5---|-----------------|
D|-7---7---5---5---|------------5-7-7-|----------------5-|-----5---------7-|
A|-------7---7-----|-5-------7-5------|------------------|-7-7---5---5-----|
E|-----------------|------------------|------------------|-----------------|
 |
 |
 |
 |
 |
 | Q   E E E E E E   E E E Q    E E E   Q   E E  E E E E   E E E Q   E E E
E|-0---0-0-0-0-0-3+|-3-3-3-1----1-1-1+|-0---0-0--0-0-0-3+|-3-3-3-1---1-1-1-|
B|-1---1-1-1-1-1-0+|-0-0-0-1----1-1-1+|-1---1-1--1-1-1-0+|-0-0-0-1---1-1-1-|
G|-2---2-2-2-2-2-0+|-0-0-0-2----2-2-2+|-0---0-0--0-0-0-0+|-0-0-0-2---2-2-2-|
D|-2-------------0+|------------------|-2--------------0+|-----------------|
A|-0-------------2+|------------------|-3--------------2+|-----------------|
E|---------------3-|------------------|----------------3-|-----------------|
 |
 |
 |
 |
 |
 | E E E E E E E E   E E E E E  E E E   E E E E  E E E E   E E E E E E E E
G|-----------------|------------------|------------------|-----------------|
D|-----------------|------------------|------------------|-----------------|
A|-0-0-0-0-0-0-0---|------------------|-3-3-3-3--3-3-3---|-----------------|
E|---------------3-|-3-3-3-1-1--1-1-1-|----------------3-|-3-3-3-1-1-1-1-1-|






   E E E E E E Q     E E SS Q   E E E   E E E H       E   H..           E
E|-----------------|--------8---------|-----------------|-----------------|
B|-----------------|---8-5--8---8-----|-----------------|-----------------|
G|---5-------------|-5----7-5-----5---|-7-7-7-7---------|-----------------|
D|-7---7---5---5---|----------------7-|-5-----5-------7-|-----------------|
A|-------7---7-----|------------------|-------5-------7+|-7---------------|
E|-----------------|------------------|---------------5+|-5---------------|
 |
 |
 |
 |
 |
 | Q   E E E E E E   W
E|-0---0-0-0-0-0---|------------------|-----------------|-----------------|
B|-1---1-1-1-1-1---|-1----------------|-----------------|-----------------|
G|-2---2-2-2-2-2---|-0----------------|-----------------|-----------------|
D|-2---------------|-2----------------|-----------------|-----------------|
A|-0---------------|-3----------------|-----------------|-----------------|
E|-----------------|------------------|-----------------|-----------------|
 |
 |
 |
 |
 |
 | E E E E E E E E   E E E  E E E E E   E E E E H
G|-----------------|------------------|-----------------|-----------------|
D|-----------------|------------------|-----------------|-----------------|
A|-0-0-0-0-0-0-0---|-3-3-3--3-3-3-3-3-|-3-3-3-3---------|-----------------|
E|-----------------|------------------|-----------------|-----------------|




What do all the symbols mean?
-----------------------------

W - whole note (semibreve)
H - half note (minim)
Q - quarter note (crotchet)
E - 8th note (quaver)
S - 16th note (semiquaver)
T - 32nd note (demisemi quaver)
X - 64th note (hemidemisemi quaver)
? - Fret number not defined (note out of range)

If a dot appears after one of the above then it means that the note is 1.5
times as long, e.g. Q. is 3 8th notes long. Two dots means 1.75 times long.

If a '+' sign appears after a note then that note is tied to (held on to) the
next note.

 ______
|1.    | - play bar/s under this sign first time only in repeats

|2.    | - play bar/s under this sign second time only in repeats

|1.3.  | - play bar/s under this sign first and third time only in repeats

||
||*
||*      - Repeat back to this sign
||

 ||
*||
*||      - Repeat from this sign
 ||
Tap to rate this tab
# A B C D E F G H I J K L M N O P Q R S T U V W X Y Z