Song name
# A B C D E F G H I J K L M N O P Q R S T U V W X Y Z

Misc Unsigned Bands - Bring Your Sisters - Sunday tab

I havent seen any tabs for Bring Your Sisters. I saw them in La Tania, and they are 
This is off their album Morning Chorus.
This is my first tab so hope its ok.


	   F	    Am	      Dm      Bb

e ||-----1-1-1----0-0-0----5-8-5----1-1-1-----------------------------||
B ||-----1-1-1----1-1-1----6-6-6----3-3-3-----------------------------||
G ||-----2-2-2----2-2-2----7-7-7----3-3-3-----------------------------||
D ||-----3-3-3----2-2-2----7-7-7----3-3-3-----------------------------||
A ||-----3-3-3----0-0-0----5-5-5----1-1-1-----------------------------||
E ||-----1-1-1--------------------------------------------------------||

	   F	    Am	      Dm      Bb

e ||-----1-1-1----0-0-0----5-5-5----1-1-1-----------------------------||
B ||-----1-1-1----1-1-1----6-6-6----3-3-3-----------------------------||
G ||-----2-2-2----2-2-2----7-7-7----3-3-3-----------------------------||
D ||-----3-3-3----2-2-2----7-7-7----3-3-3-----------------------------||
A ||-----3-3-3----0-0-0----5-5-5----1-1-1-----------------------------||
E ||-----1-1-1--------------------------------------------------------||

	   F	    Am	      Dm      Bb

e ||-----1-1-1----0-0-0----5-8-5----1-1-1-----------------------------||
B ||-----1-1-1----1-1-1----6-6-6----3-3-3-----------------------------||
G ||-----2-2-2----2-2-2----7-7-7----3-3-3-----------------------------||
D ||-----3-3-3----2-2-2----7-7-7----3-3-3-----------------------------||
A ||-----3-3-3----0-0-0----5-5-5----1-1-1-----------------------------||
E ||-----1-1-1--------------------------------------------------------||

	   F	    Am	      Dm      Bb

e ||-----1-1-1----0-0-0----5-5-5----1-1-1-1-1-1-1-1-------------------||
B ||-----1-1-1----1-1-1----6-6-6----3-3-3-3-3-3-3-3-------------------||
G ||-----2-2-2----2-2-2----7-7-7----3-3-3-3-3-3-3-3-------------------||
D ||-----3-3-3----2-2-2----7-7-7----3-3-3-3-3-3-3-3-------------------||
A ||-----3-3-3----0-0-0----5-5-5----1-1-1-1-1-1-1-1-------------------||
E ||-----1-1-1--------------------------------------------------------||

	   F	    Am	      Dm      Bb

e ||-----1-1-1----0-0-0----5-5-5----1-1-1-----------------------------||
B ||-----1-1-1----1-1-1----6-6-6----3-3-3-----------------------------||
G ||-----2-2-2----2-2-2----7-7-7----3-3-3--------X4-------------------||
D ||-----3-3-3----2-2-2----7-7-7----3-3-3-----------------------------||
A ||-----3-3-3----0-0-0----5-5-5----1-1-1-----------------------------||
E ||-----1-1-1--------------------------------------------------------||

Pre-chorus

e ||---1--------------------------------------------------------------||
B ||---3--------------------------------------------------------------||
G ||---3---X24--------------------------------------------------------||
D ||---3--------------------------------------------------------------||
A ||---1--------------------------------------------------------------||
E ||------------------------------------------------------------------||

Chorus

	F	 Am      Dm      Bb

e ||-----1-1-1----0-0-0----5-5-5----1-1-1-----------------------------||
B ||-----1-1-1----1-1-1----6-6-6----3-3-3-----------------------------||
G ||-----2-2-2----2-2-2----7-7-7----3-3-3--------X4-------------------||
D ||-----3-3-3----2-2-2----7-7-7----3-3-3-----------------------------||
A ||-----3-3-3----0-0-0----5-5-5----1-1-1-----------------------------||
E ||-----1-1-1--------------------------------------------------------||
Tap to rate this tab
# A B C D E F G H I J K L M N O P Q R S T U V W X Y Z