Song name
# A B C D E F G H I J K L M N O P Q R S T U V W X Y Z

Misc Unsigned Bands - Nick Carson - Title In Process tab

   1st Intro riff
E|---------------------------------------------------------------------|
B|---------------------------------------------------------------------|
G|---------------------------------------------------------------------|
D|---------------------------------------------------------------------|
A|---------------------------------------------------------------------|
D|-5-5-5-7-8-7-8-7--5-5-5-7-8-7-8-7---3-3-3-5-6-5-6-5--3-3-3-5-6-5-6-5-|

   2nd Intro riff
E|---------------------------------------------------------------------|
B|---------------------------------------------------------------------|
G|---------------------------------------------------------------------|
D|---------------------------------------------------------------------|
A|-5-5-5-7-8-7-8-7--5-5-5-7-8-7-8-7---3-3-3-5-6-5-6-5--3-3-3-5-6-5-6-5-|
D|-5-5-5-7-8-7-8-7--5-5-5-7-8-7-8-7---3-3-3-5-6-5-6-5--3-3-3-5-6-5-6-5-|

---------------------|
---------------------|
---------------------|
---------------------|
-5-5-5-7-8-7-8-7-5~~-|
-5-5-5-7-8-7-8-7-5~~-|

   Verse riff
E|------------------------------|
B|------------------------------|
G|------------------------------|
D|-7-x-7--6-x-6----7-x-7--6-x-6-|
A|-5-x-5--5-x-5----5-x-5--5-x-5-|
D|------------------------------|
 |
 |
E|------------------------------|
B|------------------------------|
G|-14-14--13-13----14-14--13-13-|
D|-12-12--12-12----12-12--12-12-|
A|------------------------------|
D|------------------------------|


E|------------------------------------|
B|------------------------------------|
G|------------------------------------|
D|-5-x-5--4-x-4----5-x-5--4-x-4---4-5-|
A|-3-x-3--3-x-3----3-x-3--3-x-3---3-4-|
D|------------------------------------|
 |
 |
E|------------------------------------|
B|------------------------------------|
G|-12-12--11-11----13-13--11-11-------|
D|-10-10--10-10----13-13--11-11-------|
A|------------------------------------|
D|------------------------------------|

   Chorus riff
E|------------------------------------------------------|
B|------------------------------------------------------|
G|------------------------------------------------------|
D|-7--7-7--7--7-5--5-5--5--5-3--3-3-8--8-8-7--7-7--7--7-|
A|-5--5-5--5--5-3--3-3--3--3-1--1-1-6--6-6-5--5-5--5--5-|
D|------------------------------------------------------|

Riff order
1st intro riff  x2
2nd intro riff  x1
verse riff      x2
chorus riff     x2
verse riff      x2
chorus riff     x1


Tab Legend
let ring = ~~
mute = x
Tap to rate this tab
 
# A B C D E F G H I J K L M N O P Q R S T U V W X Y Z