Song name
# A B C D E F G H I J K L M N O P Q R S T U V W X Y Z

Misc Unsigned Bands - Country Gone Metal - When Fortune Fails tab

----------------------------------------------------------------------------
	         Country Gone Metal - When Fortune Fails
----------------------------------------------------------------------------
Tabbed by:reaper102590
Email:reaper2561@yahoo.com

Tuning:Drop-D

E|---------------------------------|
B|---------------------------------|
G|---------------------------------| x4
D|-----------------------8-7-5-----|
A|-3/5-5-5-5\3-3/5-5-5-5-------8-7-|
D|---------------------------------|
            
============================================================================         
E|------------------------------------------------------------|
B|------------------------------------------------------------|
G|---------7h9-9-9-9-7h9-9-9-9---------7h9-9-9-9-7h9-9-9-9----|
D|---------7h9-9-9-9-7h9-9-9-9---------7h9-9-9-9-7h9-9-9-9----|
A|-7-7-7-7---------------------7-7-7-7------------------------|
D|-7-7-7-7---------------------7-7-7-7------------------------|
   . . . .                      . . . .

E|--------------------------|
B|--------------------------|
G|---------7-7-5-5-7-7-5-5--|      play whole part 4 times
D|---------7-7-5-5-7-7-5-5--|
A|-7-7-7-7------------------|
D|-7-7-7-7------------------|
   . . . .
============================================================================

E|---------------------------------------------|
B|---------------------------------------------|
G|-----2^~^~----4^~^~----2^~^~----7^~^~--------|
D|-----2^~^~----4^~^~----2^~^~----7^~^~--------|
A|-0-0------0-0------0-0------0-0------0-0-0-0-|
D|-0-0------0-0------0-0------0-0------0-0-0-0-|
   . .      . .      . .      . .      . . . .

E|---------------------------------|
B|---------------------------------|
G|---------------------------------| x4
D|-----------------------8-7-5-----|
A|-3/5-5-5-5\3-3/5-5-5-5-------8-7-|
D|---------------------------------|

E|--------------12----9p7-7p5-3p5-2p3-----1-4-4-3-1--------2h3-3h5-5h7-7h9-|
B|-----------11----11-----------------1-3-----------3----------------------|
G|---------9------------------------------------------3/5^-----------------|
D|-------------------------------------------------------------------------|
A|-0-0-0-0-----------------------------------------------------------------|
D|-0-0-0-0-----------------------------------------------------------------|
   . . . .
E|------------------------------------------------------------|
B|------------------------------------------------------------|
G|---------7h9-9-9-9-7h9-9-9-9---------7h9-9-9-9-7h9-9-9-9----|
D|---------7h9-9-9-9-7h9-9-9-9---------7h9-9-9-9-7h9-9-9-9----|
A|-7-7-7-7---------------------7-7-7-7------------------------|
D|-7-7-7-7---------------------7-7-7-7------------------------|
   . . . .                     . . . .

E|--------------------------|
B|--------------------------|
G|---------7-7-5-5-7-7-5-5--|      
D|---------7-7-5-5-7-7-5-5--|
A|-7-7-7-7------------------|
D|-7-7-7-7------------------|
   . . . .

E|----------------9-12-----------11---12---9p7-7p5-3p5-2p3----|
B|-----------9-12------9-11-12-9----9----9-----------------0--|
G|---9-11-12-----------------------------------------------3^-|
D|------------------------------------------------------------|
A|-0----------------------------------------------------------|
D|-0----------------------------------------------------------|
   .

E|------------------------------------------------------------|
B|------------------------------------------------------------|
G|---------7h9-9-9-9-7h9-9-9-9---------7h9-9-9-9-7h9-9-9-9----|
D|---------7h9-9-9-9-7h9-9-9-9---------7h9-9-9-9-7h9-9-9-9----|
A|-7-7-7-7---------------------7-7-7-7------------------------|
D|-7-7-7-7---------------------7-7-7-7------------------------|
   . . . .                     . . . .

E|--------------------------|
B|--------------------------|
G|---------7-7-5-5-7-7-5-5--|      
D|---------7-7-5-5-7-7-5-5--|
A|-7-7-7-7------------------|
D|-7-7-7-7------------------|
   . . . .


E|---------------------------------------------|
B|---------------------------------------------|
G|-----2^~^~----4^~^~----2^~^~----7^~^~--------|
D|-----2^~^~----4^~^~----2^~^~----7^~^~--------|
A|-0-0------0-0------0-0------0-0------0-0-0-0-|
D|-0-0------0-0------0-0------0-0------0-0-0-0-|
   . .      . .      . .      . .      . . . .

E|-------------------------------------------------|
B|-------------------------------------------------|
G|-------------------------------------------------|
D|-3-3-3-3-3-3-3-3-5-5-5-5-5-5-5-5-9-9-9-9-9-9-9-9-|
A|-3-3-3-3-3-3-3-3-5-5-5-5-5-5-5-5-9-9-9-9-9-9-9-9-|
D|-3-3-3-3-3-3-3-3-5-5-5-5-5-5-5-5-9-9-9-9-9-9-9-9-|

E|---------------------------------|
B|---------------------------------|
G|---------------------------------| x2
D|-----------------------8-7-5-----|
A|-3/5-5-5-5\3-3/5-5-5-5-------8-7-|
D|---------------------------------|

E|-----------------|
B|-----------------|
G|-----------------|
D|-----------------|
A|-3/5-5-5-0-0-0-0-|
D|---------0-0-0-0-|
           . . . . 


| /  slide up
| \  slide down
| h  hammer-on
| p  pull-off
| ~  vibrato
| +  harmonic
| x  Mute note
| .  Palm mute
============================================================================
Tap to rate this tab
 
# A B C D E F G H I J K L M N O P Q R S T U V W X Y Z