Song name
# A B C D E F G H I J K L M N O P Q R S T U V W X Y Z

Misc Unsigned Bands - Crash - Thunderball Boogie tab

Thunderball Boogie
By: Crash
Band: Thunderball Boogie

INTRO

e-----------------------------------------|------------------------------|
b-------------0---2---3---2~--------------|-0---2---3---2~---------------|
g-2-----------0---2---4---2~-4------------|-0---2---4---2~-4-------------|
d-2---------------0---0---0----2~---2--2--|-----0---0---0----2~---2--2---|
a-0---------------------------------2--2--|-----------------------2--2---|
E-----------------------------------------|-----------------------0--0---|
                                           <            3x              >

(Part2) on end of third time

e-------------------------------|
b-0---2---3---------------------|
g-0---2---4--4------------------|
d-----0---0--4------------------|
a------------2------------------|
E-------------------------------|

VERSE
(fingerpick)
e-------------------------------|-----------------------3---3-2---2-----|
b-5--5--5--5--5-3---------------|-5--5--5--5--5-3-------3---3-3---3-----|
g-2--2--2--2--2-2--2---4--4-----|-2--2--2--2--2-2-------0---0-2---2-----|3x
d------------------2---4--4-----|-----------------------0---0-0---0-----|
a-0--0--0--0--0-0--0---2--2-----|-0--0--0--0--0-0-------x---x-----------|
E-------------------------------|------------------0-2-33---3-----------|

(part2)                          pre-chorus
e-------------------------------|---------------------------------------|
b-5--5--5--5--5-3---------------|-5--5--5--5--5-3-----------------------|
g-2--2--2--2--2-2--2---4--4-----|-2--2--2--2--2-2--9-9-7--2--4----------|
d------------------2---4--4-----|------------------9-9-7--2--4----------|
a-0--0--0--0--0-0--0---2--2-----|-0--0--0--0--0-0--7-7-5--0--2----------|
E-------------------------------|---------------------------------------|

CHORUS

e------------------------------------|------------------------------|
b----------------3-------3-3---------|----------------------3---3---|
g-9-9--7---2-4---0-------2-2---2-----|-9-9--7---2-4-------0-2-2-2---|3x
d-9-9--7---2-4---0-------0-0---2-----|-9-9--7---2-4-----0---0-2-0---|
a-7-7--5---0-2---x-------------0-----|-7-7--5---0-2---3-------0-----|
E----------------3--2--0-------------|------------------------------|

on 4th time of chorus
e------------------------------------|--------------------|---------|
b----------------3-------3-3---------|---3-3----3-3-------|---3-3---|
g-9-9--7---2-4---0-------2-2---2-----|-2-2-2--2-2-2-2-----|-2-2-2-2-|
d-9-9--7---2-4---0-------0-0---2-----|-2-0-0--2-0-0-2-----|-2-0-0-2-|
a-7-7--5---0-2---x-------------0-----|-0------0-----0-----|-0-----0-|
E----------------3--2--0-------------|--------------------|---------|

-------|
-7\----|
-7\----|
-7\----|
-5\----|
-------|

VERSE
(fingerpick)
e-------------------------------|-----------------------3---2---2-----|
b-5--5--5--5--5-3---------------|-5--5--5--5--5-3-------3---3---3-----|
g-2--2--2--2--2-2--2---4--4-----|-2--2--2--2--2-2-------0---2---2-----|
d------------------2---4--4-----|-----------------------0---0---0-----|
a-0--0--0--0--0-0--0---2--2-----|-0--0--0--0--0-0-------x-------------|
E-------------------------------|------------------0-2-33-------------|

(part2)                          pre-chorus
e-------------------------------|---------------------------------------|
b-5--5--5--5--5-3---------------|-5--5--5--5--5-3-----------------------|
g-2--2--2--2--2-2--2---4--4-----|-2--2--2--2--2-2--9-9-7--2--4----------|
d------------------2---4--4-----|------------------9-9-7--2--4----------|
a-0--0--0--0--0-0--0---2--2-----|-0--0--0--0--0-0--7-7-5--0--2----------|
E-------------------------------|---------------------------------------|

CHORUS
                                                            ^ ^ ^
e------------------------------------|------------------------------|
b----------------3-------3-3---------|----------------------3---3---|
g-9-9--7---2-4---0-------2-2---2-----|-9-9--7---2-4-------0-2-2-2---|3x
d-9-9--7---2-4---0-------0-0---2-----|-9-9--7---2-4-----0---0-2-0---|
a-7-7--5---0-2---x-------------0-----|-7-7--5---0-2---3-------0-----|
E----------------3--2--0-------------|------------------------------|

on 4th time of chorus                 BRIDGE
e------------------------------------|-----------------------------------|
b----------------3-------3-3---------|---------------8-8-7-8\------------|
g-9-9--7---2-4---0-------2-2---2-----|-9-9--7---2-4--7-7-7-7\------------|
d-9-9--7---2-4---0-------0-0---2-----|-9-9--7---2-4-----------x<~~~~~~~~-|
a-7-7--5---0-2---x-------------0-----|-7-7--5---0-2-----------x<~~~~~~~~-|
E----------------3--2--0-------------|-----------------------------------|

SOLO
               ^ ^
e-------------------------------------------------------------------|
b-----------------------8b10----10b11-----12-12b14-12-12b14---------|
g-7b8-5------x-7-5-7~~~------9~-------11~-------------------14------|
d-------5-7~-x-------------------------------------------------14~~-|
a-------------------------------------------------------------------|
E-------------------------------------------------------------------|

  s.b.
-------------------------------------------------------------------------|
--17-----17---17--------------------------5------7-------8--------10-----|
--16b18-(18)-(18)-19---17-----------\---x-7b8~-x-9b10~-x-10b11~-x-12b13~-|
~------------------------17-19~~~---\---x------x-------x--------x--------|
-------------------------------------------------------------------------|
-------------------------------------------------------------------------|

                                        s. b.                    ^ ^ ^
------------------------------------------------------------------------|
---13-------15-------18--------20b22~~~-20------------------------------|
-x-15b16~-x-17b18~-x-20b21~-19----------19b20=(21)~~~-19-17------17--17-|
-x--------x--------x---------------------------------------19~~~---19---|
------------------------------------------------------------------------|
------------------------------------------------------------------------|

---------------------------|
-17-20b22~~~---------------|
---------------------------|
-------------x<~~~~~~~-----|
-------------x<~~~~~~~-----|
----------------------/7~\-|

CHORUS (outro) repeat till fade

RHYTHM
e------------------------------------|------------------------------|
b----------------3-------3-3---------|----------------------3---3---|
g-9-9--7---2-4---0-------2-2---2-----|-9-9--7---2-4-------0-2-2-2---|
d-9-9--7---2-4---0-------0-0---2-----|-9-9--7---2-4-----0---0-2-0---|
a-7-7--5---0-2---x-------------0-----|-7-7--5---0-2---3-------0-----|
E----------------3--2--0-------------|------------------------------|

LEAD                                                       ^  ^  ^
e------------------------------------|-------------------------------|
b------------------------------------|-----------15b16r=15-----------|
g------------------------------------|---------------------16-14-14~-|
d------------------------------------|-------------------------------|
a------------------------------------|-------------------------------|
E------------------------------------|-------------------------------|

RHYTHM
e------------------------------------|------------------------------|
b----------------3-------3-3---------|----------------------3---3---|
g-9-9--7---2-4---0-------2-2---2-----|-9-9--7---2-4-------0-2-2-2---|
d-9-9--7---2-4---0-------0-0---2-----|-9-9--7---2-4-----0---0-2-0---|
a-7-7--5---0-2---x-------------0-----|-7-7--5---0-2---3-------0-----|
E----------------3--2--0-------------|------------------------------|

LEAD              ^  ^
e---------------------------------------------------------------------|
b--------------20-17-17-20b22~~~~~-----------20----20~~~-22b24~-22-19-|
g--------------------------------------19b21----17--------------------|
d---------------------------------------------------------------------|
a---------------------------------------------------------------------|
E---------------------------------------------------------------------|

-------22---------------------------------------------------|
-22b24====24r22---------------------------------------------|
----------------19~~~---------------------------------------|
---------------------------------------------------------7\-|
---------------------------------------------------------7\-|
----------------------5b7~~~-3b5~~~~~~~~~~~~~~~~~~~~~~~~-5\-|
Tap to rate this tab
 
# A B C D E F G H I J K L M N O P Q R S T U V W X Y Z