Song name
# A B C D E F G H I J K L M N O P Q R S T U V W X Y Z

Misc Unsigned Bands - Somewhat Automatic - Save The Day tab

*BASS PLAYS INTRO
(bass intro)
G-----------------|
D-----------------|
A-7-7-7-7-7-7-7-7-|x2 then verses....(below)
E-----------------|

(verses)bass
G-------------------------------------------------------------------|
D---------------------------10-8-7-0-0-0-0-0-0-0-0-8-8-8-8-8-10-8-7-|
A-7-7-7-7-7-7-7-7-7-7-7-7-7-----------------------------------------|
E-------------------------------------------------------------------|


(verses)Gtr 1.
e----------------------------------------------------------------|
B----------------------------------------------------------------|
G----------------------------------------------------------------|
D--------------------------10-8-0-7-7-7-7-7-7-7-7-8-8-8-8-8-8-7--|
A-8-8-8-8-8-8-8-8-8-8-8-8-8------------------------------------8-|
E----------------------------------------------------------------|


Chorus(Gtrs. 1 and 2)
e-------------------------------------------------|
B-------------------------------------------------|
G-10-10-10-10-10-10-10-10-10-10-10-10-10-10-10-10-|
D-10-10-10-10-10-10-10-10-10-10-10-10-10-10-10-10-|
A-8--8--8--8--8--8--8--8--8--8--8--8--8--8--8--8--|
E-------------------------------------------------|

e-------------------------------------------------|
B-------------------------------------------------|
G-------------------------------------------------|
D-10-10-10-10-10-10-10-10-10-10-10-10-10-10-10-10-|
A-10-10-10-10-10-10-10-10-10-10-10-10-10-10-10-10-|
E-8--8--8--8--8--8--8--8--8--8--8--8--8--8--8--8--|

e-------------------------------------------------|
B-------------------------------------------------|
G-------------------------------------------------|
D-12-12-12-12-12-12-12-12-12-12-12-12-12-12-12-12-|
A-12-12-12-12-12-12-12-12-12-12-12-12-12-12-12-12-|
E-10-10-10-10-10-10-10-10-10-10-10-10-10-10-10-10-|

e-------------------------------------------------|
B-------------------------------------------------|
G-------------------------------------------------|
D-8-8-8-8-8-8-8-8-8-8-8-8-8-8-8-8-----------------|
A-8-8-8-8-8-8-8-8-8-8-8-8-8-8-8-8-----------------|
E-6-6-6-6-6-6-6-6-6-6-6-6-6-6-6-6-----------------|
Tap to rate this tab
# A B C D E F G H I J K L M N O P Q R S T U V W X Y Z