Song name
# A B C D E F G H I J K L M N O P Q R S T U V W X Y Z

Misc Unsigned Bands - Ectric - Electric tab

here is the first song by etric

Intro

e------------------------------------------------------------------------|
B------------------------------------------------------------------------|
G------------------------------------------------------------------------|
D--7--3--10--5-----------------------------------------------------------|
A--7--3--10--5-----------------------------------------------------------|
E--5--1--8---3-----------------------------------------------------------|


                                     STOP!

e------------------------------------------------------------------------|
B------------------------------------------------------------------------|
G------------------------------------------------------------------------|
D--77777777---33333333---1010101010101010----55555555--------------------|
A--77777777---33333333---1010101010101010----55555555--------------------|
E--55555555---11111111----8-8-8-8-8-8-8-8----33333333--------------------|X4
  .......    ........    . . . . . . . .    ........

after the first dont palm mute the verse next three
Post Chorus
e-------------------------------------------------------------------------|
B-------------------------------------------------------------------------|
G-------------------------------------------------------------------------|
D--7----------3----------10------------5----------------------------------|
A--7--5---7---3--1---3---10--8---10----5--3---5---------------------------|
E--5----------1----------8-------------3----------------------------------|

Chorus
e-------------------------------------------------------------------------|
B-------------------------------------------------------------------------|
G-------------------------------------------------------------------------|
D---77-xx---10-10-xx--33--xx--55-xx---------------------------------------|
A---77-xx---10-10-xx--33--xx--55-xx---------------------------------------|
E---55-xx---8--8--xx--11--xx--33-xx---------------------------------------|x2


Outro

e----------------------x----------------------------------------------------|
B----------------------x----------------------------------------------------|
G----------------------x----------------------------------------------------|
D--5-4-2--5-4-7--5-4---x----------------------------------------------------|
A--5-4-2--5-4-7--5-4---x----------------------------------------------------|
E--3-2-0--3-2-5--3-2---x----------------------------------------------------|


Intro
Verse
Post Chorus
Chorus
Verse
Post Chorse
Tap to rate this tab
 
# A B C D E F G H I J K L M N O P Q R S T U V W X Y Z