Guitaretab - guitar tabs
Song name
# A B C D E F G H I J K L M N O P Q R S T U V W X Y Z

Misc Unsigned Bands - Potbelleez - Dont Hold Back Acoustic tab

Highlighted       Show chord diagrams
Video of acoustic version: http://au.youtube.com/watch?v=199RDQYzKtc#GU5U2spHI_4

INTRO AND CHORUS:
(The original is a tone higher, so just move this arrangement up by 2 frets if you want 
play in the key of the recording):

          Bsus2          Bm

E|--------2-----x-x-x-x--2-x-x-2--|
B|--------2h-3-x-x-x-x--3-x-x-3--|
G|--------4----x-x-x-x--4-x-x-4--|        X2
D|--------4----x-x-x-x--4-x-x-4--|
A|--------2-----x-x-x-x--2-x-x-2--|
E|--------2-----x-x-x-x--2-x-x-2--|

          Asus2          A

E|--------0-----x-x-x-x--0-x-x-0--|
B|--------0h-2--x-x-x-x--2-x-x-2--|
G|--------2-----x-x-x-x--2-x-x-2--|        X2
D|--------2-----x-x-x-x--2-x-x-2--|
A|--------0-----x-x-x-x--0-x-x-0--|
E|--------0-----x-x-x-x--0-x-x-0--|
x
          E add11        E

(meant to be a Esus2 to E, but I'm lazy)
E|--------0-----x-x-x-x--0-x-x-0--|
B|--------0-----x-x-x-x--0-x-x-0--|
G|--------1-----x-x-x-x--1-x-x-1--|        X2
D|--------2-----x-x-x-x--2-x-x-2--|
A|--------0h-2--x-x-x-x--2-x-x-2--|
E|--------0-----x-x-x-x--0-x-x-0--|

          Bsus2          Bm
[ Tab from: http://www.guitaretab.com/m/misc-unsigned-bands/104472.html ]
E|--------2-----x-x-x-x--2-x-x-2--|
B|--------2h-3-x-x-x-x--3-x-x-3--|
G|--------4----x-x-x-x--4-x-x-4--|        X2
D|--------4----x-x-x-x--4-x-x-4--|
A|--------2-----x-x-x-x--2-x-x-2--|
E|--------2-----x-x-x-x--2-x-x-2--|


VERSE:

(The original its just C#m, very boring for an acoustic cover)

My version:

I spread the chords in two different ways (each '|' represents the end of a bar):

Bm | Bm |    Bm |               A              E | Bm |

Engage me,   I wanna breath the courage of you action...


Bm |                 A     E  |   Bm |


Don't hold back, let it be for the good...


INSTRUMENTAL BRIDGE:

I haven't included strumming pattern, here are the basic chords and how they fit into 
bars (roughly).

         Bm     Asus4  A       Asus4  E       Asus2   Bsus4

E|-----2--------5--|---0-------5--|---0-------0---|---0-------|
B|-----3--------0--|---2-------0--|---0-------0---|---0-------|
G|-----4--------4--|---2-------4--|---1-------2/--|---2-------|
D|-----4--------0--|---2-------0--|---2-------2/--|---2-------|
A|-----2--------0--|---0-------0--|---2-------0/--|---4-------|
E|-----2-----------|---0----------|---0-------0/--|---4-------|


The last bit I do, with the quiet 'don't hold back's is just another voicing of Bm A E 
but I won't bore you with the details; you probably just wanted the original riff anyway, 
lol


Questions, comments or if you just want to say hi:
www.myspace.com/alexbelllive
Related for Potbelleez - Dont Hold Back Acoustic tab