Song name
# A B C D E F G H I J K L M N O P Q R S T U V W X Y Z

Misc Unsigned Bands - Blacktop Manhattan - Hollywise tab

Title:	Hollywise
Artist:	Blacktop Manhattan

This is my tab for this song, not 100% perfect,
but sounds ok. This tab is separated into the
lead, rhythm and bass parts. The bass is pretty
much useless because it just repeats till the
end. This is just an ASCII version of the Guitar
Pro 5 version of this tab, also made by me.

Please send your comments on this tab to:
vertaxc4@yahoo.com.

Hope you like it.

Lead

E||-------|-------|-------|-------|-------|
B||-------|-------|-------|-------|-------|
G||-------|-------|-------|-------|-------|
D||-------|-------|-------|-------|-------|
A||-------|-------|-------|-------|-------|
E||-------|-------|-------|-------|-------|


                  H.           E  E   
-------|-------|---------------------|
-------|-------|---------------------|
-------|-------|---------------------|
-------|-------|--3------------L--1--|
-------|-------|---------------------|
-------|-------|---------------------|


  H.           Q        H.           E   E   
---------------------|----------------------|
---------------------|----------------------|
---------------------|----------------------|
--L------------1\----|----------------------|
---------------------|--1------------L--/4--|
---------------------|----------------------|


  W                   H.           E  E   
-------------------|---------------------|
-------------------|---------------------|
-------------------|---------------------|
-------------------|--3------------L--1--|
--L----------------|---------------------|
-------------------|---------------------|


  H.           Q        H.           E   E   
---------------------|----------------------|
---------------------|----------------------|
---------------------|----------------------|
--L------------1\----|----------------------|
---------------------|--1------------L--/4--|
---------------------|----------------------|


  W                   H.           E  E   
-------------------|---------------------|
-------------------|---------------------|
-------------------|---------------------|
-------------------|--3------------L--1--|
--L----------------|---------------------|
-------------------|---------------------|


  H.           Q        H.           E   E   
---------------------|----------------------|
---------------------|----------------------|
---------------------|----------------------|
--L------------1\----|----------------------|
---------------------|--1------------L--/4--|
---------------------|----------------------|


  W                   H.           E  E   
-------------------|---------------------|
-------------------|---------------------|
-------------------|---------------------|
-------------------|--3------------L--1--|
--L----------------|---------------------|
-------------------|---------------------|


  H.           Q        H.           E   E   
---------------------|----------------------|
---------------------|----------------------|
---------------------|----------------------|
--L------------1\----|----------------------|
---------------------|--1------------L--/4--|
---------------------|----------------------|


  W                   H.           E  E   
-------------------|---------------------|
-------------------|---------------------|
-------------------|---------------------|
-------------------|--3------------L--1--|
--L----------------|---------------------|
-------------------|---------------------|


  H.           Q        W                 
---------------------|-------------------|
---------------------|-------------------|
---------------------|-------------------|
--L------------1\----|-------------------|
---------------------|--1----------------|
---------------------|-------------------|


-------------------|-------------------|
-------------------|-------------------|
-------------------|-------------------|
-------------------|-------------------|
-------------------|-------------------|
-------------------|-------------------|


-------------------|-------------------|
-------------------|-------------------|
-------------------|-------------------|
-------------------|-------------------|
-------------------|-------------------|
-------------------|-------------------|


-------------------|-------------------|
-------------------|-------------------|
-------------------|-------------------|
-------------------|-------------------|
-------------------|-------------------|
-------------------|-------------------|


-------------------|-------------------|
-------------------|-------------------|
-------------------|-------------------|
-------------------|-------------------|
-------------------|-------------------|
-------------------|-------------------|


-------------------|-------------------|
-------------------|-------------------|
-------------------|-------------------|
-------------------|-------------------|
-------------------|-------------------|
-------------------|-------------------|


-------------------|-------------------|
-------------------|-------------------|
-------------------|-------------------|
-------------------|-------------------|
-------------------|-------------------|
-------------------|-------------------|


-------------------|-------------------|
-------------------|-------------------|
-------------------|-------------------|
-------------------|-------------------|
-------------------|-------------------|
-------------------|-------------------|


                      E  E  E  E  E  E  E   E   
-------------------|---------------------------|
-------------------|---------------------------|
-------------------|--3--3--3--3--3--3--3s--6--|
-------------------|---------------------------|
-------------------|--1--1--1--1--1--1--1s--4--|
-------------------|---------------------------|


  E  E  E  E  E  E  E  E   
--------------------------|
--------------------------|
--L--6--6--6--6--6--6--6--|
--------------------------|
--L--4--4--4--4--4--4--4--|
--------------------------|


   E   E   E   E   E   E   E   E   
----------------------------------|
----------------------------------|
--10--10--10--10--10--10--10s--8--|
----------------------------------|
---8---8---8---8---8---8---8s--6--|
----------------------------------|


  E  E  E  E  E  E  E   E   
---------------------------|
---------------------------|
--L--8--8--8--8--8--8s--3--|
---------------------------|
--L--6--6--6--6--6--6s--1--|
---------------------------|


  E  E  E  E  E  E  E   E   
---------------------------|
---------------------------|
--L--3--3--3--3--3--3s--6--|
---------------------------|
--L--1--1--1--1--1--1s--4--|
---------------------------|


  E  E  E  E  E  E  E  E   
--------------------------|
--------------------------|
--L--6--6--6--6--6--6--6--|
--------------------------|
--L--4--4--4--4--4--4--4--|
--------------------------|


   E   E   E   E   E   E   E   E   
----------------------------------|
----------------------------------|
--10--10--10--10--10--10--10s--8--|
----------------------------------|
---8---8---8---8---8---8---8s--6--|
----------------------------------|


  E  E  E  E  E  E  E  E   
--------------------------|
--------------------------|
--L--8--8--8--8--8--8--8--|
--------------------------|
--L--6--6--6--6--6--6--6--|
--------------------------|


  E  E  E  E  E  E  E   E   
---------------------------|
---------------------------|
--3--3--3--3--3--3--3s--6--|
---------------------------|
--1--1--1--1--1--1--1s--4--|
---------------------------|


  E  E  E  E  E  E  E  E   
--------------------------|
--------------------------|
--L--6--6--6--6--6--6--6--|
--------------------------|
--L--4--4--4--4--4--4--4--|
--------------------------|


   E   E   E   E   E   E   E   E   
----------------------------------|
----------------------------------|
--10--10--10--10--10--10--10s--8--|
----------------------------------|
---8---8---8---8---8---8---8s--6--|
----------------------------------|


  E  E  E  E  E  E  E   E   
---------------------------|
---------------------------|
--L--8--8--8--8--8--8s--3--|
---------------------------|
--L--6--6--6--6--6--6s--1--|
---------------------------|


  E  E  E  E  E  E  E   E   
---------------------------|
---------------------------|
--L--3--3--3--3--3--3s--6--|
---------------------------|
--L--1--1--1--1--1--1s--4--|
---------------------------|


  E  E  E  E  E  E  E  E   
--------------------------|
--------------------------|
--L--6--6--6--6--6--6--6--|
--------------------------|
--L--4--4--4--4--4--4--4--|
--------------------------|


   E   E   E   E   E   E   E   E   
----------------------------------|
----------------------------------|
--10--10--10--10--10--10--10s--8--|
----------------------------------|
---8---8---8---8---8---8---8s--6--|
----------------------------------|


  E  E  E  E  E  E  E  E                       
--------------------------|-------------------|
--------------------------|-------------------|
--L--8--8--8--8--8--8--8--|-------------------|
--------------------------|-------------------|
--L--6--6--6--6--6--6--6--|-------------------|
--------------------------|-------------------|


-------------------|-------------------|
-------------------|-------------------|
-------------------|-------------------|
-------------------|-------------------|
-------------------|-------------------|
-------------------|-------------------|


-------------------|-------------------|
-------------------|-------------------|
-------------------|-------------------|
-------------------|-------------------|
-------------------|-------------------|
-------------------|-------------------|


-------------------|-------------------|
-------------------|-------------------|
-------------------|-------------------|
-------------------|-------------------|
-------------------|-------------------|
-------------------|-------------------|


-------------------|-------------------|
-------------------|-------------------|
-------------------|-------------------|
-------------------|-------------------|
-------------------|-------------------|
-------------------|-------------------|


-------------------|-------------------|
-------------------|-------------------|
-------------------|-------------------|
-------------------|-------------------|
-------------------|-------------------|
-------------------|-------------------|


-------------------|-------------------|
-------------------|-------------------|
-------------------|-------------------|
-------------------|-------------------|
-------------------|-------------------|
-------------------|-------------------|


-------------------|-------------------|
-------------------|-------------------|
-------------------|-------------------|
-------------------|-------------------|
-------------------|-------------------|
-------------------|-------------------|


                      E  E  E  E  E  E  E   E   
-------------------|---------------------------|
-------------------|---------------------------|
-------------------|--3--3--3--3--3--3--3s--6--|
-------------------|---------------------------|
-------------------|--1--1--1--1--1--1--1s--4--|
-------------------|---------------------------|


  E  E  E  E  E  E  E  E   
--------------------------|
--------------------------|
--L--6--6--6--6--6--6--6--|
--------------------------|
--L--4--4--4--4--4--4--4--|
--------------------------|


   E   E   E   E   E   E   E   E   
----------------------------------|
----------------------------------|
--10--10--10--10--10--10--10s--8--|
----------------------------------|
---8---8---8---8---8---8---8s--6--|
----------------------------------|


  E  E  E  E  E  E  E   E   
---------------------------|
---------------------------|
--L--8--8--8--8--8--8s--3--|
---------------------------|
--L--6--6--6--6--6--6s--1--|
---------------------------|


  E  E  E  E  E  E  E   E   
---------------------------|
---------------------------|
--L--3--3--3--3--3--3s--6--|
---------------------------|
--L--1--1--1--1--1--1s--4--|
---------------------------|


  E  E  E  E  E  E  E  E   
--------------------------|
--------------------------|
--L--6--6--6--6--6--6--6--|
--------------------------|
--L--4--4--4--4--4--4--4--|
--------------------------|


   E   E   E   E   E   E   E   E   
----------------------------------|
----------------------------------|
--10--10--10--10--10--10--10s--8--|
----------------------------------|
---8---8---8---8---8---8---8s--6--|
----------------------------------|


  E  E  E  E  E  E  E  E   
--------------------------|
--------------------------|
--L--8--8--8--8--8--8--8--|
--------------------------|
--L--6--6--6--6--6--6--6--|
--------------------------|


  E  E  E  E  E  E  E   E   
---------------------------|
---------------------------|
--3--3--3--3--3--3--3s--6--|
---------------------------|
--1--1--1--1--1--1--1s--4--|
---------------------------|


  E  E  E  E  E  E  E  E   
--------------------------|
--------------------------|
--L--6--6--6--6--6--6--6--|
--------------------------|
--L--4--4--4--4--4--4--4--|
--------------------------|


   E   E   E   E   E   E   E   E   
----------------------------------|
----------------------------------|
--10--10--10--10--10--10--10s--8--|
----------------------------------|
---8---8---8---8---8---8---8s--6--|
----------------------------------|


  E  E  E  E  E  E  E   E   
---------------------------|
---------------------------|
--L--8--8--8--8--8--8s--3--|
---------------------------|
--L--6--6--6--6--6--6s--1--|
---------------------------|


  E  E  E  E  E  E  E   E   
---------------------------|
---------------------------|
--L--3--3--3--3--3--3s--6--|
---------------------------|
--L--1--1--1--1--1--1s--4--|
---------------------------|


  E  E  E  E  E  E  E  E   
--------------------------|
--------------------------|
--L--6--6--6--6--6--6--6--|
--------------------------|
--L--4--4--4--4--4--4--4--|
--------------------------|


   E   E   E   E   E   E   E   E   
----------------------------------|
----------------------------------|
--10--10--10--10--10--10--10s--8--|
----------------------------------|
---8---8---8---8---8---8---8s--6--|
----------------------------------|


  E  E  E  E  E  E  E  E     H.           E  E   
--------------------------|---------------------|
--------------------------|---------------------|
--L--8--8--8--8--8--8--8--|---------------------|
--------------------------|---------------------|
--L--6--6--6--6--6--6--6--|---------------------|
--------------------------|---------------------|


  W                   H.           E  E   
-------------------|---------------------|
-------------------|---------------------|
-------------------|---------------------|
-------------------|---------------------|
-------------------|---------------------|
-------------------|---------------------|


  H.           Q       H.           E  E   
--------------------|---------------------|
--------------------|---------------------|
--------------------|---------------------|
--------------------|---------------------|
--------------------|---------------------|
--------------------|---------------------|


  W                    H.           E   E   
-------------------|-----------------------|
-------------------|-----------------------|
-------------------|-----------------------|
-------------------|--/3------------L--/8--|
-------------------|-----------------------|
-------------------|-----------------------|


  E  Q    H        E   
----------------------|
----------------------|
----------------------|
--L--8----8-----------|
----------------------|
----------------------|


    Q    E    Q    E    Q     
-----------------------------|
--/11-------/13-------/14----|
-----------------------------|
-----------------------------|
-----------------------------|
-----------------------------|


  E    H         E   E   E   
----------------------------|
-----/16---------L--16--18--|
----------------------------|
----------------------------|
----------------------------|
----------------------------|


   E   Q     Q     Q.       
--16--13-------------------|
------------16----14s------|
---------------------------|
---------------------------|
---------------------------|
---------------------------|


   H         Q.      E   
------------------------|
--18--------18------18--|
------------------------|
------------------------|
------------------------|
------------------------|


   E   Q     Q     Q.      
--------------------------|
--18--16----14----11------|
--------------------------|
--------------------------|
--------------------------|
--------------------------|


   E   S  S  Q.      S  S  Q     
--------------------------------|
---L--11-13-14------11-13-14----|
--------------------------------|
--------------------------------|
--------------------------------|
--------------------------------|


   E.   E.   E   E.   E.   E   
------------------------------|
--14---13---14--16---14---16--|
------------------------------|
------------------------------|
------------------------------|
------------------------------|


   E.   E.   E    Q.      E    
--13---16---13s--16-------L\--|
------------------------------|
------------------------------|
------------------------------|
------------------------------|
------------------------------|


  E  E  E  E  E  E  E   E   
---------------------------|
---------------------------|
--3--3--3--3--3--3--3s--6--|
---------------------------|
--1--1--1--1--1--1--1s--4--|
---------------------------|


  E  E  E  E  E  E  E  E   
--------------------------|
--------------------------|
--L--6--6--6--6--6--6--6--|
--------------------------|
--L--4--4--4--4--4--4--4--|
--------------------------|


   E   E   E   E   E   E   E   E   
----------------------------------|
----------------------------------|
--10--10--10--10--10--10--10s--8--|
----------------------------------|
---8---8---8---8---8---8---8s--6--|
----------------------------------|


  E  E  E  E  E  E  E   E   
---------------------------|
---------------------------|
--L--8--8--8--8--8--8s--3--|
---------------------------|
--L--6--6--6--6--6--6s--1--|
---------------------------|


  E  E  E  E  E  E  E   E   
---------------------------|
---------------------------|
--L--3--3--3--3--3--3s--6--|
---------------------------|
--L--1--1--1--1--1--1s--4--|
---------------------------|


  E  E  E  E  E  E  E  E   
--------------------------|
--------------------------|
--L--6--6--6--6--6--6--6--|
--------------------------|
--L--4--4--4--4--4--4--4--|
--------------------------|


   E   E   E   E   E   E   E   E   
----------------------------------|
----------------------------------|
--10--10--10--10--10--10--10s--8--|
----------------------------------|
---8---8---8---8---8---8---8s--6--|
----------------------------------|


  E  E  E  E  E  E  E  E   
--------------------------|
--------------------------|
--L--8--8--8--8--8--8--8--|
--------------------------|
--L--6--6--6--6--6--6--6--|
--------------------------|


  E  E  E  E  E  E  E   E   
---------------------------|
---------------------------|
--3--3--3--3--3--3--3s--6--|
---------------------------|
--1--1--1--1--1--1--1s--4--|
---------------------------|


  E  E  E  E  E  E  E  E   
--------------------------|
--------------------------|
--L--6--6--6--6--6--6--6--|
--------------------------|
--L--4--4--4--4--4--4--4--|
--------------------------|


   E   E   E   E   E   E   E   E   
----------------------------------|
----------------------------------|
--10--10--10--10--10--10--10s--8--|
----------------------------------|
---8---8---8---8---8---8---8s--6--|
----------------------------------|


  E  E  E  E  E  E  E   E   
---------------------------|
---------------------------|
--L--8--8--8--8--8--8s--3--|
---------------------------|
--L--6--6--6--6--6--6s--1--|
---------------------------|


  E  E  E  E  E  E  E   E   
---------------------------|
---------------------------|
--L--3--3--3--3--3--3s--6--|
---------------------------|
--L--1--1--1--1--1--1s--4--|
---------------------------|


  E  E  E  E  E  E  E  E   
--------------------------|
--------------------------|
--L--6--6--6--6--6--6--6--|
--------------------------|
--L--4--4--4--4--4--4--4--|
--------------------------|


   E   E   E   E   E   E   E   E   
----------------------------------|
----------------------------------|
--10--10--10--10--10--10--10s--8--|
----------------------------------|
---8---8---8---8---8---8---8s--6--|
----------------------------------|


  E  E  E  E  E  E  E  E     W                 
--------------------------|-------------------|
--------------------------|-------------------|
--L--8--8--8--8--8--8--8--|-------------------|
--------------------------|-------------------|
--L--6--6--6--6--6--6--6--|--1----------------|
--------------------------|-------------------|


  W                   W                 
-------------------|-------------------|
-------------------|-------------------|
-------------------|-------------------|
-------------------|-------------------|
--L----------------|--L----------------|
-------------------|-------------------|


  W                  
-------------------||
-------------------||
-------------------||
-------------------||
--L----------------||
-------------------||



Rhythm



             H.           E   E   
E||-------|----------------------|
B||-------|----------------------|
G||-------|----------------------|
D||-------|----------------------|
A||-------|--1------------L--/4--|
E||-------|----------------------|


  W                   H.           E  E   
-------------------|---------------------|
-------------------|---------------------|
-------------------|---------------------|
-------------------|---------------------|
--L----------------|--4------------L--3--|
-------------------|---------------------|


  H.           Q       H.           E   E   
--------------------|----------------------|
--------------------|----------------------|
--------------------|----------------------|
--------------------|----------------------|
--L------------3----|--1------------L--/4--|
--------------------|----------------------|


  W                   H.           E  E   
-------------------|---------------------|
-------------------|---------------------|
-------------------|---------------------|
-------------------|---------------------|
--L----------------|--4------------L--3--|
-------------------|---------------------|


  H.           Q       H.           E   E   
--------------------|----------------------|
--------------------|----------------------|
--------------------|----------------------|
--------------------|----------------------|
--L------------3----|--1------------L--/4--|
--------------------|----------------------|


  W                   H.           E  E   
-------------------|---------------------|
-------------------|---------------------|
-------------------|---------------------|
-------------------|---------------------|
--L----------------|--4------------L--3--|
-------------------|---------------------|


  H.           Q       H.           E   E   
--------------------|----------------------|
--------------------|----------------------|
--------------------|----------------------|
--------------------|----------------------|
--L------------3----|--1------------L--/4--|
--------------------|----------------------|


  W                   H.           E  E   
-------------------|---------------------|
-------------------|---------------------|
-------------------|---------------------|
-------------------|---------------------|
--L----------------|--4------------L--3--|
-------------------|---------------------|


  H.           Q       E  E  E  E  E  E  E  E   
--------------------|--------------------------|
--------------------|--------------------------|
--------------------|--------------------------|
--------------------|--8--8--8--8--8--8--8--8--|
--L------------3----|--8--8--8--8--8--8--8--8--|
--------------------|--6--6--6--6--6--6--6--6--|


  E  E  E  E  E  E  E  E   
--------------------------|
--------------------------|
--------------------------|
--4--4--4--4--4--4--4--4--|
--4--4--4--4--4--4--4--4--|
--2--2--2--2--2--2--2--2--|


   E   E   E   E   E   E   E   E   
----------------------------------|
----------------------------------|
----------------------------------|
--11--11--11--11--11--11--11--11--|
--11--11--11--11--11--11--11--11--|
---9---9---9---9---9---9---9---9--|


  E  E  E  E  E  E  E  E   
--------------------------|
--------------------------|
--------------------------|
--6--6--6--6--6--6--6--6--|
--6--6--6--6--6--6--6--6--|
--4--4--4--4--4--4--4--4--|


  E  E  E  E  E  E  E  E   
--------------------------|
--------------------------|
--------------------------|
--8--8--8--8--8--8--8--8--|
--8--8--8--8--8--8--8--8--|
--6--6--6--6--6--6--6--6--|


  E  E  E  E  E  E  E  E   
--------------------------|
--------------------------|
--------------------------|
--4--4--4--4--4--4--4--4--|
--4--4--4--4--4--4--4--4--|
--2--2--2--2--2--2--2--2--|


   E   E   E   E   E   E   E   E   
----------------------------------|
----------------------------------|
----------------------------------|
--11--11--11--11--11--11--11--11--|
--11--11--11--11--11--11--11--11--|
---9---9---9---9---9---9---9---9--|


  E  E  E  E  E  E  E  E   
--------------------------|
--------------------------|
--------------------------|
--6--6--6--6--6--6--6--6--|
--6--6--6--6--6--6--6--6--|
--4--4--4--4--4--4--4--4--|


  PM PM PM PM PM PM PM PM  
  E  E  E  E  E  E  E  E   
--------------------------|
--------------------------|
--------------------------|
--------------------------|
--8--8--8--8--8--8--8--8--|
--6--6--6--6--6--6--6--6--|


  PM PM PM PM PM PM PM PM  
  E  E  E  E  E  E  E  E   
--------------------------|
--------------------------|
--------------------------|
--------------------------|
--4--4--4--4--4--4--4--4--|
--2--2--2--2--2--2--2--2--|


   PM  PM  PM  PM  PM  PM  PM  PM  
   E   E   E   E   E   E   E   E   
----------------------------------|
----------------------------------|
----------------------------------|
----------------------------------|
--11--11--11--11--11--11--11--11--|
---9---9---9---9---9---9---9---9--|


  PM PM PM PM PM PM PM PM  
  E  E  E  E  E  E  E  E   
--------------------------|
--------------------------|
--------------------------|
--------------------------|
--6--6--6--6--6--6--6--6--|
--4--4--4--4--4--4--4--4--|


  PM PM PM PM PM PM PM PM  
  E  E  E  E  E  E  E  E   
--------------------------|
--------------------------|
--------------------------|
--------------------------|
--8--8--8--8--8--8--8--8--|
--6--6--6--6--6--6--6--6--|


  PM PM PM PM PM PM PM PM  
  E  E  E  E  E  E  E  E   
--------------------------|
--------------------------|
--------------------------|
--------------------------|
--4--4--4--4--4--4--4--4--|
--2--2--2--2--2--2--2--2--|


   PM  PM  PM  PM  PM  PM  PM  PM  
   E   E   E   E   E   E   E   E   
----------------------------------|
----------------------------------|
----------------------------------|
----------------------------------|
--11--11--11--11--11--11--11--11--|
---9---9---9---9---9---9---9---9--|


  PM PM PM PM PM PM PM PM  
  E  E  E  E  E  E  E  E   
--------------------------|
--------------------------|
--------------------------|
--------------------------|
--6--6--6--6--6--6--6--6--|
--4--4--4--4--4--4--4--4--|


  PM PM PM PM PM PM PM PM  
  E  E  E  E  E  E  E  E   
--------------------------|
--------------------------|
--------------------------|
--------------------------|
--8--8--8--8--8--8--8--8--|
--6--6--6--6--6--6--6--6--|


  PM PM PM PM PM PM PM PM  
  E  E  E  E  E  E  E  E   
--------------------------|
--------------------------|
--------------------------|
--------------------------|
--4--4--4--4--4--4--4--4--|
--2--2--2--2--2--2--2--2--|


   PM  PM  PM  PM  PM  PM  PM  PM  
   E   E   E   E   E   E   E   E   
----------------------------------|
----------------------------------|
----------------------------------|
----------------------------------|
--11--11--11--11--11--11--11--11--|
---9---9---9---9---9---9---9---9--|


  PM PM PM PM PM PM PM PM  
  E  E  E  E  E  E  E  E   
--------------------------|
--------------------------|
--------------------------|
--------------------------|
--6--6--6--6--6--6--6--6--|
--4--4--4--4--4--4--4--4--|


  PM PM PM PM PM PM PM PM  
  E  E  E  E  E  E  E  E   
--------------------------|
--------------------------|
--------------------------|
--------------------------|
--8--8--8--8--8--8--8--8--|
--6--6--6--6--6--6--6--6--|


  PM PM PM PM PM PM PM PM  
  E  E  E  E  E  E  E  E   
--------------------------|
--------------------------|
--------------------------|
--------------------------|
--4--4--4--4--4--4--4--4--|
--2--2--2--2--2--2--2--2--|


   PM  PM  PM  PM  PM  PM  PM  PM  
   E   E   E   E   E   E   E   E   
----------------------------------|
----------------------------------|
----------------------------------|
----------------------------------|
--11--11--11--11--11--11--11--11--|
---9---9---9---9---9---9---9---9--|


  PM PM PM PM PM PM PM PM  
  E  E  E  E  E  E  E  E   
--------------------------|
--------------------------|
--------------------------|
--------------------------|
--6--6--6--6--6--6--6--6--|
--4--4--4--4--4--4--4--4--|


  E  E  E  E  E  E  E  E   
--------------------------|
--------------------------|
--------------------------|
--8--8--8--8--8--8--8--8--|
--8--8--8--8--8--8--8--8--|
--6--6--6--6--6--6--6--6--|


  E  E  E  E  E  E  E  E   
--------------------------|
--------------------------|
--------------------------|
--4--4--4--4--4--4--4--4--|
--4--4--4--4--4--4--4--4--|
--2--2--2--2--2--2--2--2--|


   E   E   E   E   E   E   E   E   
----------------------------------|
----------------------------------|
----------------------------------|
--11--11--11--11--11--11--11--11--|
--11--11--11--11--11--11--11--11--|
---9---9---9---9---9---9---9---9--|


  E  E  E  E  E  E  E  E   
--------------------------|
--------------------------|
--------------------------|
--6--6--6--6--6--6--6--6--|
--6--6--6--6--6--6--6--6--|
--4--4--4--4--4--4--4--4--|


  E  E  E  E  E  E  E  E   
--------------------------|
--------------------------|
--------------------------|
--8--8--8--8--8--8--8--8--|
--8--8--8--8--8--8--8--8--|
--6--6--6--6--6--6--6--6--|


  E  E  E  E  E  E  E  E   
--------------------------|
--------------------------|
--------------------------|
--4--4--4--4--4--4--4--4--|
--4--4--4--4--4--4--4--4--|
--2--2--2--2--2--2--2--2--|


   E   E   E   E   E   E   E   E   
----------------------------------|
----------------------------------|
----------------------------------|
--11--11--11--11--11--11--11--11--|
--11--11--11--11--11--11--11--11--|
---9---9---9---9---9---9---9---9--|


  E  E  E  E  E  E  E  E   
--------------------------|
--------------------------|
--------------------------|
--6--6--6--6--6--6--6--6--|
--6--6--6--6--6--6--6--6--|
--4--4--4--4--4--4--4--4--|


  E  E  E  E  E  E  E  E   
--------------------------|
--------------------------|
--------------------------|
--8--8--8--8--8--8--8--8--|
--8--8--8--8--8--8--8--8--|
--6--6--6--6--6--6--6--6--|


  E  E  E  E  E  E  E  E   
--------------------------|
--------------------------|
--------------------------|
--4--4--4--4--4--4--4--4--|
--4--4--4--4--4--4--4--4--|
--2--2--2--2--2--2--2--2--|


   E   E   E   E   E   E   E   E   
----------------------------------|
----------------------------------|
----------------------------------|
--11--11--11--11--11--11--11--11--|
--11--11--11--11--11--11--11--11--|
---9---9---9---9---9---9---9---9--|


  E  E  E  E  E  E  E  E   
--------------------------|
--------------------------|
--------------------------|
--6--6--6--6--6--6--6--6--|
--6--6--6--6--6--6--6--6--|
--4--4--4--4--4--4--4--4--|


  E  E  E  E  E  E  E  E   
--------------------------|
--------------------------|
--------------------------|
--8--8--8--8--8--8--8--8--|
--8--8--8--8--8--8--8--8--|
--6--6--6--6--6--6--6--6--|


  E  E  E  E  E  E  E  E   
--------------------------|
--------------------------|
--------------------------|
--4--4--4--4--4--4--4--4--|
--4--4--4--4--4--4--4--4--|
--2--2--2--2--2--2--2--2--|


   E   E   E   E   E   E   E   E   
----------------------------------|
----------------------------------|
----------------------------------|
--11--11--11--11--11--11--11--11--|
--11--11--11--11--11--11--11--11--|
---9---9---9---9---9---9---9---9--|


  E  E  E  E  E  E  E  E   
--------------------------|
--------------------------|
--------------------------|
--6--6--6--6--6--6--6--6--|
--6--6--6--6--6--6--6--6--|
--4--4--4--4--4--4--4--4--|


  PM PM PM PM PM PM PM PM  
  E  E  E  E  E  E  E  E   
--------------------------|
--------------------------|
--------------------------|
--------------------------|
--8--8--8--8--8--8--8--8--|
--6--6--6--6--6--6--6--6--|


  PM PM PM PM PM PM PM PM  
  E  E  E  E  E  E  E  E   
--------------------------|
--------------------------|
--------------------------|
--------------------------|
--4--4--4--4--4--4--4--4--|
--2--2--2--2--2--2--2--2--|


   PM  PM  PM  PM  PM  PM  PM  PM  
   E   E   E   E   E   E   E   E   
----------------------------------|
----------------------------------|
----------------------------------|
----------------------------------|
--11--11--11--11--11--11--11--11--|
---9---9---9---9---9---9---9---9--|


  PM PM PM PM PM PM PM PM  
  E  E  E  E  E  E  E  E   
--------------------------|
--------------------------|
--------------------------|
--------------------------|
--6--6--6--6--6--6--6--6--|
--4--4--4--4--4--4--4--4--|


  PM PM PM PM PM PM PM PM  
  E  E  E  E  E  E  E  E   
--------------------------|
--------------------------|
--------------------------|
--------------------------|
--8--8--8--8--8--8--8--8--|
--6--6--6--6--6--6--6--6--|


  PM PM PM PM PM PM PM PM  
  E  E  E  E  E  E  E  E   
--------------------------|
--------------------------|
--------------------------|
--------------------------|
--4--4--4--4--4--4--4--4--|
--2--2--2--2--2--2--2--2--|


   PM  PM  PM  PM  PM  PM  PM  PM  
   E   E   E   E   E   E   E   E   
----------------------------------|
----------------------------------|
----------------------------------|
----------------------------------|
--11--11--11--11--11--11--11--11--|
---9---9---9---9---9---9---9---9--|


  PM PM PM PM PM PM PM PM  
  E  E  E  E  E  E  E  E   
--------------------------|
--------------------------|
--------------------------|
--------------------------|
--6--6--6--6--6--6--6--6--|
--4--4--4--4--4--4--4--4--|


  PM PM PM PM PM PM PM PM  
  E  E  E  E  E  E  E  E   
--------------------------|
--------------------------|
--------------------------|
--------------------------|
--8--8--8--8--8--8--8--8--|
--6--6--6--6--6--6--6--6--|


  PM PM PM PM PM PM PM PM  
  E  E  E  E  E  E  E  E   
--------------------------|
--------------------------|
--------------------------|
--------------------------|
--4--4--4--4--4--4--4--4--|
--2--2--2--2--2--2--2--2--|


   PM  PM  PM  PM  PM  PM  PM  PM  
   E   E   E   E   E   E   E   E   
----------------------------------|
----------------------------------|
----------------------------------|
----------------------------------|
--11--11--11--11--11--11--11--11--|
---9---9---9---9---9---9---9---9--|


  PM PM PM PM PM PM PM PM  
  E  E  E  E  E  E  E  E   
--------------------------|
--------------------------|
--------------------------|
--------------------------|
--6--6--6--6--6--6--6--6--|
--4--4--4--4--4--4--4--4--|


  PM PM PM PM PM PM PM PM  
  E  E  E  E  E  E  E  E   
--------------------------|
--------------------------|
--------------------------|
--------------------------|
--8--8--8--8--8--8--8--8--|
--6--6--6--6--6--6--6--6--|


  PM PM PM PM PM PM PM PM  
  E  E  E  E  E  E  E  E   
--------------------------|
--------------------------|
--------------------------|
--------------------------|
--4--4--4--4--4--4--4--4--|
--2--2--2--2--2--2--2--2--|


   PM  PM  PM  PM  PM  PM  PM  PM  
   E   E   E   E   E   E   E   E   
----------------------------------|
----------------------------------|
----------------------------------|
----------------------------------|
--11--11--11--11--11--11--11--11--|
---9---9---9---9---9---9---9---9--|


  PM PM PM PM PM PM PM PM  
  E  E  E  E  E  E  E  E   
--------------------------|
--------------------------|
--------------------------|
--------------------------|
--6--6--6--6--6--6--6--6--|
--4--4--4--4--4--4--4--4--|


  E  E  E  E  E  E  E  E   
--------------------------|
--------------------------|
--------------------------|
--8--8--8--8--8--8--8--8--|
--8--8--8--8--8--8--8--8--|
--6--6--6--6--6--6--6--6--|


  E  E  E  E  E  E  E  E   
--------------------------|
--------------------------|
--------------------------|
--4--4--4--4--4--4--4--4--|
--4--4--4--4--4--4--4--4--|
--2--2--2--2--2--2--2--2--|


   E   E   E   E   E   E   E   E   
----------------------------------|
----------------------------------|
----------------------------------|
--11--11--11--11--11--11--11--11--|
--11--11--11--11--11--11--11--11--|
---9---9---9---9---9---9---9---9--|


  E  E  E  E  E  E  E  E   
--------------------------|
--------------------------|
--------------------------|
--6--6--6--6--6--6--6--6--|
--6--6--6--6--6--6--6--6--|
--4--4--4--4--4--4--4--4--|


  E  E  E  E  E  E  E  E   
--------------------------|
--------------------------|
--------------------------|
--8--8--8--8--8--8--8--8--|
--8--8--8--8--8--8--8--8--|
--6--6--6--6--6--6--6--6--|


  E  E  E  E  E  E  E  E   
--------------------------|
--------------------------|
--------------------------|
--4--4--4--4--4--4--4--4--|
--4--4--4--4--4--4--4--4--|
--2--2--2--2--2--2--2--2--|


   E   E   E   E   E   E   E   E   
----------------------------------|
----------------------------------|
----------------------------------|
--11--11--11--11--11--11--11--11--|
--11--11--11--11--11--11--11--11--|
---9---9---9---9---9---9---9---9--|


  E  E  E  E  E  E  E  E   
--------------------------|
--------------------------|
--------------------------|
--6--6--6--6--6--6--6--6--|
--6--6--6--6--6--6--6--6--|
--4--4--4--4--4--4--4--4--|


  E  E  E  E  E  E  E  E   
--------------------------|
--------------------------|
--------------------------|
--8--8--8--8--8--8--8--8--|
--8--8--8--8--8--8--8--8--|
--6--6--6--6--6--6--6--6--|


  E  E  E  E  E  E  E  E   
--------------------------|
--------------------------|
--------------------------|
--4--4--4--4--4--4--4--4--|
--4--4--4--4--4--4--4--4--|
--2--2--2--2--2--2--2--2--|


   E   E   E   E   E   E   E   E   
----------------------------------|
----------------------------------|
----------------------------------|
--11--11--11--11--11--11--11--11--|
--11--11--11--11--11--11--11--11--|
---9---9---9---9---9---9---9---9--|


  E  E  E  E  E  E  E  E   
--------------------------|
--------------------------|
--------------------------|
--6--6--6--6--6--6--6--6--|
--6--6--6--6--6--6--6--6--|
--4--4--4--4--4--4--4--4--|


  E  E  E  E  E  E  E  E   
--------------------------|
--------------------------|
--------------------------|
--8--8--8--8--8--8--8--8--|
--8--8--8--8--8--8--8--8--|
--6--6--6--6--6--6--6--6--|


  E  E  E  E  E  E  E  E   
--------------------------|
--------------------------|
--------------------------|
--4--4--4--4--4--4--4--4--|
--4--4--4--4--4--4--4--4--|
--2--2--2--2--2--2--2--2--|


   E   E   E   E   E   E   E   E   
----------------------------------|
----------------------------------|
----------------------------------|
--11--11--11--11--11--11--11--11--|
--11--11--11--11--11--11--11--11--|
---9---9---9---9---9---9---9---9--|


  E  E  E  E  E  E  E  E     H.           E   E   
--------------------------|----------------------|
--------------------------|----------------------|
--------------------------|----------------------|
--6--6--6--6--6--6--6--6--|----------------------|
--6--6--6--6--6--6--6--6--|--1------------L--/4--|
--4--4--4--4--4--4--4--4--|----------------------|


  W                   H.           E  E   
-------------------|---------------------|
-------------------|---------------------|
-------------------|---------------------|
-------------------|---------------------|
--L----------------|--4------------L--3--|
-------------------|---------------------|


  H.           Q       H.           E   E   
--------------------|----------------------|
--------------------|----------------------|
--------------------|----------------------|
--------------------|----------------------|
--L------------3----|--1------------L--/4--|
--------------------|----------------------|


  W                   H.           E  E   
-------------------|---------------------|
-------------------|---------------------|
-------------------|---------------------|
-------------------|---------------------|
--L----------------|--4------------L--3--|
-------------------|---------------------|


  H.           Q       H.           E   E   
--------------------|----------------------|
--------------------|----------------------|
--------------------|----------------------|
--------------------|----------------------|
--L------------3----|--1------------L--/4--|
--------------------|----------------------|


  W                   H.           E  E   
-------------------|---------------------|
-------------------|---------------------|
-------------------|---------------------|
-------------------|---------------------|
--L----------------|--4------------L--3--|
-------------------|---------------------|


  H.           Q       H.           E   E   
--------------------|----------------------|
--------------------|----------------------|
--------------------|----------------------|
--------------------|----------------------|
--L------------3----|--1------------L--/4--|
--------------------|----------------------|


  W                   H.           E  E   
-------------------|---------------------|
-------------------|---------------------|
-------------------|---------------------|
-------------------|--3------------L--1--|
--L----------------|---------------------|
-------------------|---------------------|


  H.           Q        E  E  E  E  E  E  E  E   
---------------------|--------------------------|
---------------------|--------------------------|
---------------------|--------------------------|
--L------------1\----|--8--8--8--8--8--8--8--8--|
---------------------|--8--8--8--8--8--8--8--8--|
---------------------|--6--6--6--6--6--6--6--6--|


  E  E  E  E  E  E  E  E   
--------------------------|
--------------------------|
--------------------------|
--4--4--4--4--4--4--4--4--|
--4--4--4--4--4--4--4--4--|
--2--2--2--2--2--2--2--2--|


   E   E   E   E   E   E   E   E   
----------------------------------|
----------------------------------|
----------------------------------|
--11--11--11--11--11--11--11--11--|
--11--11--11--11--11--11--11--11--|
---9---9---9---9---9---9---9---9--|


  E  E  E  E  E  E  E  E   
--------------------------|
--------------------------|
--------------------------|
--6--6--6--6--6--6--6--6--|
--6--6--6--6--6--6--6--6--|
--4--4--4--4--4--4--4--4--|


  E  E  E  E  E  E  E  E   
--------------------------|
--------------------------|
--------------------------|
--8--8--8--8--8--8--8--8--|
--8--8--8--8--8--8--8--8--|
--6--6--6--6--6--6--6--6--|


  E  E  E  E  E  E  E  E   
--------------------------|
--------------------------|
--------------------------|
--4--4--4--4--4--4--4--4--|
--4--4--4--4--4--4--4--4--|
--2--2--2--2--2--2--2--2--|


   E   E   E   E   E   E   E   E   
----------------------------------|
----------------------------------|
----------------------------------|
--11--11--11--11--11--11--11--11--|
--11--11--11--11--11--11--11--11--|
---9---9---9---9---9---9---9---9--|


  E  E  E  E  E  E  E  E   
--------------------------|
--------------------------|
--------------------------|
--6--6--6--6--6--6--6--6--|
--6--6--6--6--6--6--6--6--|
--4--4--4--4--4--4--4--4--|


  E  E  E  E  E  E  E  E   
--------------------------|
--------------------------|
--------------------------|
--8--8--8--8--8--8--8--8--|
--8--8--8--8--8--8--8--8--|
--6--6--6--6--6--6--6--6--|


  E  E  E  E  E  E  E  E   
--------------------------|
--------------------------|
--------------------------|
--4--4--4--4--4--4--4--4--|
--4--4--4--4--4--4--4--4--|
--2--2--2--2--2--2--2--2--|


   E   E   E   E   E   E   E   E   
----------------------------------|
----------------------------------|
----------------------------------|
--11--11--11--11--11--11--11--11--|
--11--11--11--11--11--11--11--11--|
---9---9---9---9---9---9---9---9--|


  E  E  E  E  E  E  E  E   
--------------------------|
--------------------------|
--------------------------|
--6--6--6--6--6--6--6--6--|
--6--6--6--6--6--6--6--6--|
--4--4--4--4--4--4--4--4--|


  E  E  E  E  E  E  E  E   
--------------------------|
--------------------------|
--------------------------|
--8--8--8--8--8--8--8--8--|
--8--8--8--8--8--8--8--8--|
--6--6--6--6--6--6--6--6--|


  E  E  E  E  E  E  E  E   
--------------------------|
--------------------------|
--------------------------|
--4--4--4--4--4--4--4--4--|
--4--4--4--4--4--4--4--4--|
--2--2--2--2--2--2--2--2--|


   E   E   E   E   E   E   E   E   
----------------------------------|
----------------------------------|
----------------------------------|
--11--11--11--11--11--11--11--11--|
--11--11--11--11--11--11--11--11--|
---9---9---9---9---9---9---9---9--|


  E  E  E  E  E  E  E  E     W                 
--------------------------|-------------------|
--------------------------|-------------------|
--------------------------|-------------------|
--6--6--6--6--6--6--6--6--|--8----------------|
--6--6--6--6--6--6--6--6--|--8----------------|
--4--4--4--4--4--4--4--4--|--6----------------|


  W                   W                 
-------------------|-------------------|
-------------------|-------------------|
-------------------|-------------------|
--L----------------|--L----------------|
--L----------------|--L----------------|
--L----------------|--L----------------|


  W                  
-------------------||
-------------------||
-------------------||
--L----------------||
--L----------------||
--L----------------||





Bass



             H.           E  E   
G||-------|---------------------|
D||-------|---------------------|
A||-------|--1------------L-----|
E||-------|------------------2--|


  W                   H.           E  E   
-------------------|---------------------|
-------------------|---------------------|
-------------------|--4------------L-----|
--L----------------|------------------4--|


  W                   H.           E  E   
-------------------|---------------------|
-------------------|---------------------|
-------------------|--1------------L-----|
--L----------------|------------------2--|


  W                   H.           E  E   
-------------------|---------------------|
-------------------|---------------------|
-------------------|--4------------L-----|
--L----------------|------------------4--|


  W                   H.           E  E   
-------------------|---------------------|
-------------------|---------------------|
-------------------|--1------------L-----|
--L----------------|------------------2--|


  W                   H.           E  E   
-------------------|---------------------|
-------------------|---------------------|
-------------------|--4------------L-----|
--L----------------|------------------4--|


  W                   H.           E  E   
-------------------|---------------------|
-------------------|---------------------|
-------------------|--1------------L-----|
--L----------------|------------------2--|


  W                   H.           E  E   
-------------------|---------------------|
-------------------|---------------------|
-------------------|--4------------L-----|
--L----------------|------------------4--|


  W                   H.           E  E   
-------------------|---------------------|
-------------------|---------------------|
-------------------|--1------------L-----|
--L----------------|------------------2--|


  W                   H.           E  E   
-------------------|---------------------|
-------------------|---------------------|
-------------------|--4------------L-----|
--L----------------|------------------4--|


  W                   H.           E  E   
-------------------|---------------------|
-------------------|---------------------|
-------------------|--1------------L-----|
--L----------------|------------------2--|


  W                   H.           E  E   
-------------------|---------------------|
-------------------|---------------------|
-------------------|--4------------L-----|
--L----------------|------------------4--|


  W                   H.           E  E   
-------------------|---------------------|
-------------------|---------------------|
-------------------|--1------------L-----|
--L----------------|------------------2--|


  W                   H.           E  E   
-------------------|---------------------|
-------------------|---------------------|
-------------------|--4------------L-----|
--L----------------|------------------4--|


  W                   H.           E  E   
-------------------|---------------------|
-------------------|---------------------|
-------------------|--1------------L-----|
--L----------------|------------------2--|


  W                   H.           E  E   
-------------------|---------------------|
-------------------|---------------------|
-------------------|--4------------L-----|
--L----------------|------------------4--|


  W                   H.           E  E   
-------------------|---------------------|
-------------------|---------------------|
-------------------|--1------------L-----|
--L----------------|------------------2--|


  W                   H.           E  E   
-------------------|---------------------|
-------------------|---------------------|
-------------------|--4------------L-----|
--L----------------|------------------4--|


  W                   H.           E  E   
-------------------|---------------------|
-------------------|---------------------|
-------------------|--1------------L-----|
--L----------------|------------------2--|


  W                   H.           E  E   
-------------------|---------------------|
-------------------|---------------------|
-------------------|--4------------L-----|
--L----------------|------------------4--|


  W                   H.           E  E   
-------------------|---------------------|
-------------------|---------------------|
-------------------|--1------------L-----|
--L----------------|------------------2--|


  W                   H.           E  E   
-------------------|---------------------|
-------------------|---------------------|
-------------------|--4------------L-----|
--L----------------|------------------4--|


  W                   H.           E  E   
-------------------|---------------------|
-------------------|---------------------|
-------------------|--1------------L-----|
--L----------------|------------------2--|


  W                   H.           E  E   
-------------------|---------------------|
-------------------|---------------------|
-------------------|--4------------L-----|
--L----------------|------------------4--|


  W                   H.           E  E   
-------------------|---------------------|
-------------------|---------------------|
-------------------|--1------------L-----|
--L----------------|------------------2--|


  W                   H.           E  E   
-------------------|---------------------|
-------------------|---------------------|
-------------------|--4------------L-----|
--L----------------|------------------4--|


  W                   H.           E  E   
-------------------|---------------------|
-------------------|---------------------|
-------------------|--1------------L-----|
--L----------------|------------------2--|


  W                   H.           E  E   
-------------------|---------------------|
-------------------|---------------------|
-------------------|--4------------L-----|
--L----------------|------------------4--|


  W                   H.           E  E   
-------------------|---------------------|
-------------------|---------------------|
-------------------|--1------------L-----|
--L----------------|------------------2--|


  W                   H.           E  E   
-------------------|---------------------|
-------------------|---------------------|
-------------------|--4------------L-----|
--L----------------|------------------4--|


  W                   H.           E  E   
-------------------|---------------------|
-------------------|---------------------|
-------------------|--1------------L-----|
--L----------------|------------------2--|


  W                   H.           E  E   
-------------------|---------------------|
-------------------|---------------------|
-------------------|--4------------L-----|
--L----------------|------------------4--|


  W                   H.           E  E   
-------------------|---------------------|
-------------------|---------------------|
-------------------|--1------------L-----|
--L----------------|------------------2--|


  W                   H.           E  E   
-------------------|---------------------|
-------------------|---------------------|
-------------------|--4------------L-----|
--L----------------|------------------4--|


  W                   H.           E  E   
-------------------|---------------------|
-------------------|---------------------|
-------------------|--1------------L-----|
--L----------------|------------------2--|


  W                   H.           E  E   
-------------------|---------------------|
-------------------|---------------------|
-------------------|--4------------L-----|
--L----------------|------------------4--|


  W                   H.           E  E   
-------------------|---------------------|
-------------------|---------------------|
-------------------|--1------------L-----|
--L----------------|------------------2--|


  W                   H.           E  E   
-------------------|---------------------|
-------------------|---------------------|
-------------------|--4------------L-----|
--L----------------|------------------4--|


  W                   H.           E  E   
-------------------|---------------------|
-------------------|---------------------|
-------------------|--1------------L-----|
--L----------------|------------------2--|


  W                   H.           E  E   
-------------------|---------------------|
-------------------|---------------------|
-------------------|--4------------L-----|
--L----------------|------------------4--|


  W                   H.           E  E   
-------------------|---------------------|
-------------------|---------------------|
-------------------|--1------------L-----|
--L----------------|------------------2--|


  W                   H.           E  E   
-------------------|---------------------|
-------------------|---------------------|
-------------------|--4------------L-----|
--L----------------|------------------4--|


  W                   H.           E  E   
-------------------|---------------------|
-------------------|---------------------|
-------------------|--1------------L-----|
--L----------------|------------------2--|


  W                   H.           E  E   
-------------------|---------------------|
-------------------|---------------------|
-------------------|--4------------L-----|
--L----------------|------------------4--|


  W                   H.           E  E   
-------------------|---------------------|
-------------------|---------------------|
-------------------|--1------------L-----|
--L----------------|------------------2--|


  W                   H.           E  E   
-------------------|---------------------|
-------------------|---------------------|
-------------------|--4------------L-----|
--L----------------|------------------4--|


  W                   H.           E  E   
-------------------|---------------------|
-------------------|---------------------|
-------------------|--1------------L-----|
--L----------------|------------------2--|


  W                   H.           E  E   
-------------------|---------------------|
-------------------|---------------------|
-------------------|--4------------L-----|
--L----------------|------------------4--|


  W                   H.           E  E   
-------------------|---------------------|
-------------------|---------------------|
-------------------|--1------------L-----|
--L----------------|------------------2--|


  W                   H.           E  E   
-------------------|---------------------|
-------------------|---------------------|
-------------------|--4------------L-----|
--L----------------|------------------4--|


  W                   H.           E  E   
-------------------|---------------------|
-------------------|---------------------|
-------------------|--1------------L-----|
--L----------------|------------------2--|


  W                   H.           E  E   
-------------------|---------------------|
-------------------|---------------------|
-------------------|--4------------L-----|
--L----------------|------------------4--|


  W                   H.           E  E   
-------------------|---------------------|
-------------------|---------------------|
-------------------|--1------------L-----|
--L----------------|------------------2--|


  W                   H.           E  E   
-------------------|---------------------|
-------------------|---------------------|
-------------------|--4------------L-----|
--L----------------|------------------4--|


  W                   H.           E  E   
-------------------|---------------------|
-------------------|---------------------|
-------------------|--1------------L-----|
--L----------------|------------------2--|


  W                   H.           E  E   
-------------------|---------------------|
-------------------|---------------------|
-------------------|--4------------L-----|
--L----------------|------------------4--|


  W                   H.           E  E   
-------------------|---------------------|
-------------------|---------------------|
-------------------|--1------------L-----|
--L----------------|------------------2--|


  W                   H.           E  E   
-------------------|---------------------|
-------------------|---------------------|
-------------------|--4------------L-----|
--L----------------|------------------4--|


  W                   H.           E  E   
-------------------|---------------------|
-------------------|---------------------|
-------------------|--1------------L-----|
--L----------------|------------------2--|


  W                   H.           E  E   
-------------------|---------------------|
-------------------|---------------------|
-------------------|--4------------L-----|
--L----------------|------------------4--|


  W                   W                 
-------------------|-------------------|
-------------------|-------------------|
-------------------|--1----------------|
--L----------------|-------------------|


  W                   W                 
-------------------|-------------------|
-------------------|-------------------|
--L----------------|--L----------------|
-------------------|-------------------|


  W                  
-------------------||
-------------------||
--L----------------||
-------------------||









Duration Legend
---------------
W - whole
H - half
Q - quarter
E - 8th
S - 16th
T - 32nd
X - 64th
. - note dotted
|-n-|  - n-tuplets


Tablature Legend
----------------
L - tied note
x - dead note
g - grace note
(n) - ghost note
> - accentuded note
NH - natural harmonic
AH - artificial harmonic
TH - tapped harmonic
SH - semi harmonic
PH - pitch harmonic
h - hammer on
p - pull off
b - bend
br - bendRelease
pb - preBend
pbr - preBendRelease
brb - bendReleaseBend
\n/ - tremolo bar dip
\n - tremolo bar dive
-/n - tremolo bar Release up
/n\ - tremolo bar inverted dip
/n - tremolo bar return
-\n - tremolo bar Release down
S - shift slide
s - legato slide
/ -  slide into from below or out of upwards
\ -  slide into from above or out of downwards
~ - vibrato
W - wide vibrato
tr - trill
TP - tremolo picking
T - tapping
S - slap
P - pop
< - fade in
^ - brush up
v - brush down
Tap to rate this tab
 
# A B C D E F G H I J K L M N O P Q R S T U V W X Y Z