Song name
# A B C D E F G H I J K L M N O P Q R S T U V W X Y Z

Misc Unsigned Bands - Driftwood Jams - Lady Ocean tab

verse/intro-two guitars:
--------x-----x-----x-----x----0x----0x----1x----1x------|
-------1x----1x-----x-----x----1x----1x----1x----1x------|
-------0x----0x----1x----1x----2x----2x----2x----2x------|
-------2x----2x----0x----0x----2x----2x----3x----3x------|
-------3x----3x----2x----2x-----x-----x----3x----3x------|
--------x-----x-----x-----x-----x-----x----1x----1x------|

-------3-----------4-----------5/7\5---------------------|
------------------------------------------3p1--3p1-3p1---|
---------------------------------------------------------|
---------------------------------------------------------|
---------------------------------------------------------|
---------------------------------------------------------|

outro:
-------------------------------0-----------1-------------|
-------1-----------------------1-----------1-------------|
-------0-----------1-----------2-----------2-------------|
-------2-----------0-----------2-----------3-------------|
-------3-----------2-----------------------3-------------|
-------------------------------------------1-------------|

-------3-----------4-----------5/7-5/7\5---3p1--3p1-3p1--|
---------------------------------------------------------|
---------------------------------------------------------|
---------------------------------------------------------|
---------------------------------------------------------|
---------------------------------------------------------|

ending:
---------|
---1-----|
---0-----|
---2-----|
---3-----|
---------|
Tap to rate this tab
# A B C D E F G H I J K L M N O P Q R S T U V W X Y Z