Song name
# A B C D E F G H I J K L M N O P Q R S T U V W X Y Z

Misc Unsigned Bands - Ps Check The Kids - Wisconsin tab

INTRO(clean, reverb or any really pretty effect is recomended)
C--------------------------------------------------------|
G#-------------------------------------------------------|
D#-----2-----2---------2-----2---------------------------|
A#-------3-----3---3-----3----3---3----------------------|
F----5-----5-----5----4----4----4------------------------|
A#-------------------------------------------------------|

C----------------------------|
G#---------------------------|
D#-----0---0--------2---2----|
A#------3---3---3----3---3---|
F---1----1----1---2---2---3--|(hold out on the last measure before breakdown
A#---------------------------|4X

BREAKDOWN(heavy distortion)
C--------------------------------------------------------|
G--------------------------------------------------------|
D#-------------------------------------------------------|
A#-------------------------------------------------------|
F---0--000-000----1--------------------------------------|
A#--1--111-111-1-2-2-1-----------------------------------|4X

C--------------------------------------------------------|
G--------------------------------------------------------|
D#-------------------------------------------------------|
A#-------------------------------------------------------|
F---2--222-222----2--------------------------------------|
A#--3--333-333-2-3-3-2-----------------------------------|4X

VERSE(heavy distortion)

C-----8-8-8-8--10101010--8-8-8-8-8--10101010--8-8-8-------|
G-----6-6-6-6--6-6-6-6---6-6-6-6-6--6-6-6-6---6-6-6-------|
D#----7-7-7-7--7-7-7-7---7-7-7-7-7--7-7-7-7---7-7-7-------|
A#-000------000-------000---------------------------------|
F--000------000-------000---------------------------------|
A#-000------000-------000---------------------------------|X2

C-------------------------------------------------------|
G-------------------------------------------------------|
D#------2222-------2222-------0000-------3333-----------|
A#-000--3333--000--3333--000--3333--000--2222-----------|
F--000--5555--000--4444--000--1111--000--3333-----------|
A#-000--------000--------000--------000-----------------|X2


REPEAT INTRO(speed it up a lil though)

BRUUUUUTTTAALLLLL BREAKDOWN

(this is how its origionally written, in the song, and live, its usually improvised.. so 
this how you like)
C---------------------------------------------------------|
G---------------------------------------------------------|
D#--------------------------------------------------------|
A#--------------------------------------------------------|
F---0--0--0-----0-0-0-----0--0--0---0-0-0-----------------|
A#--1--1--1-----1-1-1-----1--1--1---1-1-1-----------------|8X

REALLY PRETTY PART! (for nice effect, flip through effects on the pedal)


C-------------------------------------------------------|
G#------------------------------------------------------|
D#-----2-----2---------2-----2--------------------------|
A#-------3-----3---3-----3----3---3---------------------|
F----5-----5-----5----4----4----4-----------------------|
A#------------------------------------------------------|

C-------------------------------------------------------|
G#------------------------------------------------------|
D#-----0---0--------2---2-------------------------------|
A#------3---3---3----3---3------------------------------|
F---1----1----1---2---2---3-----------------------------|
A#------------------------------------------------------|2X


C-----8--8--8--8--8--8--8--10-10-10-10-10-10-10---------|
G-----6--6--6--6--6--6--6--6--6--6--6--6--6--6----------|
D#----7--7--7--7--7--7--7--7--7--7--7--7--7--7----------|
A#------------------------------------------------------|
F-------------------------------------------------------|
A#------------------------------------------------------|

C-----8--8--8--8--8--8--8--8--8--8--8--8--8--8----------|
G-----6--6--6--6--6--6--6-------------------------------|
D#------------------------------------------------------|
A#------------------------------------------------------|
F-------------------------------------------------------|
A#------------------------------------------------------|


BLAST BEAT!!!!!(DISTORTION)

C--------------------------------------------------------|
G--------------------------------------------------------|
D#-------------------------------------------------------|
A#--6666666666666666666666666666--6--6-------------------|
F---5555555555555555555555555555--5--5-------------------|
A#-------------------------------------------------------|


C---------------------------------------------------------|
G---------------------------------------------------------|
D#--------------------------------------------------------|
A#6-5-2-4-6-5-2-4-6-5-2-4-6-5-2-4-6-5-2-4-6-5-2-4-6-5-2-4-|
F-5-4-1-3-5-4-1-3-5-4-1-3-5-4-1-3-5-4-1-3-5-4-1-3-5-4-1-3-|
A#--------------------------------------------------------|x2


C----------------------------------------------------------|
G----------------------------------------------------------|
D#------------------------------------------7-7------------|
A#---------------------------------------------------------|
F--5-4-1-3-5-4-1-3-5-4-1-3-5-4-1-3-5--5-5---5-5---5-5--5-5-|
A#---------------------------------------------------------|


THEN ANOTHER BREAKDOWN
C--------------------------------------------------------|
G--------------------------------------------------------|
D#-------------------------------------------------------|
A#-------------------------------------------------------|
F---0--000-000----1--------------------------------------|
A#--1--111-111-1-2-2-1-----------------------------------|X6
*(Then the drums play for two measures with no guitar)

then end on-


C---------------------------------------------------------|
G---------------------------------------------------------|
D#--------------------------------------------------------|
A#--------------------------------------------------------|
F---5---5-------------5---5----------2-2-2-2---0----------|
A#-----------------------------------3-3-3-3---1----------|

THATS IT!!
Tap to rate this tab
# A B C D E F G H I J K L M N O P Q R S T U V W X Y Z