Song name
# A B C D E F G H I J K L M N O P Q R S T U V W X Y Z

Misc Unsigned Bands - Fixed Upon Her Soul - Bringing Relief tab

Fixed Upon Her Soul... www.myspace.com/thehellokittykatklub
Bringing Relief (Temporate)    ^=Pinch     x=mute note(right after played)
The First Recordings        PM/.=Palm Mute +=let note ring

(This song is copyrighted by Fixed Upon Her Soul... $250,000 fines for pirating)

Guitar 1
Intro:
|--------------------------------------------------------------------------|
|--------------------------------------------------------------------------|
|--------------------------------------------------------------------------|
|-----7---5---3--------7---5---3--------7---5---3---8---7---5---7----------|
|-0-0-7-0-5-0-3----0-0-7-0-5-0-3----0-0-7-0-5-0-3-0-8-0-7-0-5-0-7----------|
|-0-0-7-0-5-0-3----0-0-7-0-5-0-3----0-0-7-0-5-0-3-0-8-0-7-0-5-0-7----------|
PM. .   .   .      . .   .   .      . .   .   .   .   .   .   .

|--------------------------------------------------------------------------|
|--------------------------------------------------------------------------|
|--------------------------------------------------------------------------|
|-----7---5---3--------7---5---3--------7---5---3---8---7---5---7----------|
|-0-0-7-0-5-0-3----0-0-7-0-5-0-3----0-0-7-0-5-0-3-0-8-0-7-0-5-0-7----------|
|-0-0-7-0-5-0-3----0-0-7-0-5-0-3----0-0-7-0-5-0-3-0-8-0-7-0-5-0-7----------|
PM. .   .   .      . .   .   .      . .   .   .   .   .   .   .

While Guitar 1 keeps playing on second time of that riff Guitar does this... at the 
same time as shown above^
Guitar 2
|--------------------------------------------------------------------------|
|--------------------------------------------------------------------------|
|--------------------------------------------------------------------------|
|--------------------------------------------------------------------------|
|-0-0--------------0-0--------------0-0------------------------------------|
|-0-0--------------0-0--------------0-0------------------------------------|
PM. .              . .              . .

Both Guitars Now... Same riff (continued, 3rd time)
|--------------------------------------------------------------------------|
|--------------------------------------------------------------------------|
|--------------------------------------------------------------------------|
|-----7---5---3--------7---5---3--------7---5---3---8---7---5---7----------|
|-0-0-7-0-5-0-3----0-0-7-0-5-0-3----0-0-7-0-5-0-3-0-8-0-7-0-5-0-7----------|
|-0-0-7-0-5-0-3----0-0-7-0-5-0-3----0-0-7-0-5-0-3-0-8-0-7-0-5-0-7----------|
PM. .   .   .      . .   .   .      . .   .   .   .   .   .   .

|--------------------------------------------------------------------------|
|--------------------------------------------------------------------------|
|--------------------------------------------------------------------------|
|-----7---5---3--------7---5---3--------7---5---3---8---7---5---7----------|
|-0-0-7-0-5-0-3----0-0-7-0-5-0-3----0-0-7-0-5-0-3-0-8-0-7-0-5-0-7----------|
|-0-0-7-0-5-0-3----0-0-7-0-5-0-3----0-0-7-0-5-0-3-0-8-0-7-0-5-0-7----------|
PM. .   .   .      . .   .   .      . .   .   .   .   .   .   .

Verse2
Guitar 1 or Both... If Parker learns how to play it.
|------------------------------------------------------------------|
|------------------------------------------------------------------|
|------------------------------------------------------------------|
|------------------------------------------------------------------|
|-0-0-5-0-7-0-8----0-0-5-0-7-0-8----0-0-5-0-7-0-8-0-10-0-8-0-7-0-8-|
|-0-0---0---0------0-0---0---0------0-0---0---0---0----0---0---0---|x2

Break Down     Note: There are no drums for the first 2x of this Break Down
Guitar 1 Note: when theres multiple 000's with out this 0-0, it means gallop
|-------------------------|
|-------------------------|
|-------------------------|
|-------------------------|
|-------------------------|
|-0-0-0x----000-00-0-0-0x-|

|---------------------------------------|
|---------------------------16-16-16-16-|
|---------------------------------------|
|---------------------------------------|
|---------------------------------------|
|-0-0-0x----000-00-0-0-0x---------------|

Both Guitars (Drums come in here)
|-------------------------|
|-------------------------|
|-------------------------|
|-------------------------|
|-------------------------|
|-0-0-0x----000-00-0-0-0x-|

|---------------------------------------|
|---------------------------16-16-16-16-|
|---------------------------------------|
|---------------------------------------|
|---------------------------------------|
|-0-0-0x----000-00-0-0-0x---------------|x2

Verse3
Guitar 2
|--------------------------------|
|--------------------------------|
|--------------------------------|
|--------------------------------|
|-0-0-8-0-7-0-8-0-10-0-8-0-7-8-7-|
|-0-0----------------------------|

|--------------------------------|
|--------------------------------|
|--------------------------------|
|--------------------------------|
|-0-0-8-0-7-0-8-0-10-0-8-0-7^----|
|-0-0----------------------------|

|--------------------------------|
|--------------------------------|
|--------------------------------|
|--------------------------------|
|-0-0-8-0-7-0-8-0-10-0-8-0-7-8-7-|
|-0-0----------------------------|

|--------------------------------|
|--------------------------10^---|
|--------------------------------|
|--------------------------------|
|-0-0-8-0-7-0-8-0-10-0-8-0-------|
|-0-0----------------------------|(then guitar 2 stops for a while)

Guitar 1
|--------------------------------|
|--------------------------------|
|--------------------------------|
|--------------------------------|
|-0-0-8-0-7-0-8-0-10-0-8-0-7-8-7-|
|-0-0---0---0---0----0---0-------|
PM. .   .   .   .    .   .

|--------------------------------|
|--------------------------------|
|--------------------------------|
|--------------------------------|
|-0-0-8-0-7-0-8-0-10-0-8-0-7^----|
|-0-0---0---0---0----0---0-------|
PM. .   .   .   .    .   .

|--------------------------------|
|--------------------------------|
|--------------------------------|
|--------------------------------|
|-0-0-8-0-7-0-8-0-10-0-8-0-7-8-7-|
|-0-0---0---0---0----0---0-------|
PM. .   .   .   .    .   .

|--------------------------------|
|--------------------------10^---|
|--------------------------------|
|--------------------------------|
|-0-0-8-0-7-0-8-0-10-0-8-0-------|
|-0-0---0---0---0----0---0-------|
PM. .   .   .   .    .   .

Breakdown... Both Guitars
|-------------------------|
|-------------------------|
|-------------------------|
|-------------------------|
|-------------------------|
|-0-0-0x----000-00-0-0-0x-|

|---------------------------------------|
|---------------------------16-16-16-16-|
|---------------------------------------|
|---------------------------------------|
|---------------------------------------|
|-0-0-0x----000-00-0-0-0x---------------|x2

Verse4
Guitar 1
|--------------------------------------------------------------------------|
|--------------------------------------------------------------------------|
|--------------------------------------------------------------------------|
|-----7---5---3--------7---5---3--------7---5---3---8---7---5---7----------|
|-0-0-7-0-5-0-3----0-0-7-0-5-0-3----0-0-7-0-5-0-3-0-8-0-7-0-5-0-7----------|
|-0-0-7-0-5-0-3----0-0-7-0-5-0-3----0-0-7-0-5-0-3-0-8-0-7-0-5-0-7----------|
PM. .   .   .      . .   .   .      . .   .   .   .   .   .   .

|--------------------------------------------------------------------------|
|--------------------------------------------------------------------------|
|--------------------------------------------------------------------------|
|-----7---5---3--------7---5---3--------7---5---3---8---7---5---7----------|
|-0-0-7-0-5-0-3----0-0-7-0-5-0-3----0-0-7-0-5-0-3-0-8-0-7-0-5-0-7----------|
|-0-0-7-0-5-0-3----0-0-7-0-5-0-3----0-0-7-0-5-0-3-0-8-0-7-0-5-0-7----------|
PM. .   .   .      . .   .   .      . .   .   .   .   .   .   .

While Guitar 1 keeps playing on second time of that riff Guitar does this... at the 
same time as shown above^
Guitar 2
|--------------------------------------------------------------------------|
|--------------------------------------------------------------------------|
|--------------------------------------------------------------------------|
|--------------------------------------------------------------------------|
|-0-0--------------0-0--------------0-0------------------------------------|
|-0-0--------------0-0--------------0-0------------------------------------|
PM. .              . .              . .

Both Guitars Now... Same riff (continued, 3rd time)
|--------------------------------------------------------------------------|
|--------------------------------------------------------------------------|
|--------------------------------------------------------------------------|
|-----7---5---3--------7---5---3--------7---5---3---8---7---5---7----------|
|-0-0-7-0-5-0-3----0-0-7-0-5-0-3----0-0-7-0-5-0-3-0-8-0-7-0-5-0-7----------|
|-0-0-7-0-5-0-3----0-0-7-0-5-0-3----0-0-7-0-5-0-3-0-8-0-7-0-5-0-7----------|
PM. .   .   .      . .   .   .      . .   .   .   .   .   .   .

|--------------------------------------------------------------------------|
|--------------------------------------------------------------------------|
|--------------------------------------------------------------------------|
|-----7---5---3--------7---5---3--------7---5---3---8---7---5---7----------|
|-0-0-7-0-5-0-3----0-0-7-0-5-0-3----0-0-7-0-5-0-3-0-8-0-7-0-5-0-7----------|
|-0-0-7-0-5-0-3----0-0-7-0-5-0-3----0-0-7-0-5-0-3-0-8-0-7-0-5-0-7----------|
PM. .   .   .      . .   .   .      . .   .   .   .   .   .   .

Verse5
Guitar 1 or Both... If Parker learns how to play it.
|-------------------------------------------------------------------|
|-------------------------------------------------------------------|
|-------------------------------------------------------------------|
|-------------------------------------------------------------------|
|-0-0-5-0-7-0-8----0-0-5-0-7-0-8----0-0-5-0-7-0-8-0-10-0-8-0-7-0-8+-|
|-0-0---0---0------0-0---0---0------0-0---0---0---0----0---0---0----|x2

|-0-|
|-0-| Note: These are the top three strings, you have to play this part     |-0-| very 
or else it wont sound right

Verse6 (soft part)
Guitar 2
|----------------------------------------------------------------|
|----------------------------------------------------------------|
|----------------------------------------------------------------|
|-----7-5-7-5-7-5------7-5-7-5-7-5-----7-5-7-5-7-5-----7-5-8-5-7-|
|-5-5-------------5-5--------------5-5-------------5-5-----------|
|----------------------------------------------------------------|

|------------------------------------------------------------------|Play this
|------------------------------------------------------------------|riff and
|------------------------------------------------------------------|the riff
|------------------------------------------------------------------|above
|-----8-7-8-7-8-7-----8-7-8-7-8-7-----8-7-8-7-8-7-----8-0-7-0------|together
|-8-8-------------8-8-------------8-8-------------8-8---------10---|4x
   Note: on your last time playing this through strum the above^ 10
While Guitar 2 does that Guitar 1 plays...
|-------------------------|
|-------------------------|
|-------------------------|
|-------------------------|
|-------------------------|
|-0-0-0x----000-00-0-0-0x-|

|-------------------------|
|-------------------------|
|-------------------------|
|-------------------------|
|-------------------------|
|-0-0-0x----000-00-0-0-0x-|a couple of times

|-0-|
|-0-|
|-0-| Note: that is GUITAR 1 stumming the top 3 strings

Immediatley after GUITAR 2 plays...
Verse7
|--------------------------------|
|--------------------------------|
|--------------------------------|
|--------------------------------|
|-0-0-8-0-7-0-8-0-10-0-8-0-7-8-7-|
|-0-0----------------------------|

|--------------------------------|
|--------------------------------|
|--------------------------------|
|--------------------------------|
|-0-0-8-0-7-0-8-0-10-0-8-0-7^----|
|-0-0----------------------------|

|--------------------------------|
|--------------------------------|
|--------------------------------|
|--------------------------------|
|-0-0-8-0-7-0-8-0-10-0-8-0-7-8-7-|
|-0-0----------------------------|

|--------------------------------|
|--------------------------10^---|
|--------------------------------|
|--------------------------------|
|-0-0-8-0-7-0-8-0-10-0-8-0-------|
|-0-0----------------------------|(then guitar 2 stops for a while)

Guitar 1
|--------------------------------|
|--------------------------------|
|--------------------------------|
|--------------------------------|
|-0-0-8-0-7-0-8-0-10-0-8-0-7-8-7-|
|-0-0---0---0---0----0---0-------|
PM. .   .   .   .    .   .

|--------------------------------|
|--------------------------------|
|--------------------------------|
|--------------------------------|
|-0-0-8-0-7-0-8-0-10-0-8-0-7^----|
|-0-0---0---0---0----0---0-------|
PM. .   .   .   .    .   .

|--------------------------------|
|--------------------------------|
|--------------------------------|
|--------------------------------|
|-0-0-8-0-7-0-8-0-10-0-8-0-7-8-7-|
|-0-0---0---0---0----0---0-------|
PM. .   .   .   .    .   .

|--------------------------------------|
|--------------------------10-10-10-10-|
|--------------------------------------|
|--------------------------------------|
|-0-0-8-0-7-0-8-0-10-0-8-0-------------|
|-0-0---0---0---0----0---0-------------|
PM. .   .   .   .    .   .

Breakdown... Both Guitars
|-------------------------|
|-------------------------|
|-------------------------|
|-------------------------|
|-------------------------|
|-0-0-0x----000-00-0-0-0x-|

|------------------------------------------|
|---------------------------10-10-10-10----|
|------------------------------------------|
|---------------------------------------0+-|
|---------------------------------------0+-|
|-0-0-0x----000-00-0-0-0x---------------0+-|x2

I know this tab is 100% correct...
I personally know the people who made this song
Tap to rate this tab
# A B C D E F G H I J K L M N O P Q R S T U V W X Y Z