Song name
# A B C D E F G H I J K L M N O P Q R S T U V W X Y Z

Misc Unsigned Bands - In The Darkness - Hereafter tab

Here it is


|--------------------------------------------|
|--------------------------------------------|
|--------------------------------------------|
|-------9-------10-------12-------10-------9-|
|-12-12---12-12----12-12----12-12----12-12---|
|--------------------------------------------|

|--------------------------------------------|
|--------------------------------------------|
|--------------------------------------------|
|-------9-------10-------12-------10-------9-|
|-11-11---11-11----11-11----11-11----11-11---|
|--------------------------------------------|

|----------------------------------|
|----------------------------------|
|----------------------------------|
|-----9-----10-----12-----10-----9-|
|-9-9---9-9----9-9----9-9----9-9---|
|----------------------------------|

|------------------------------------------|
|------------------------------------------|
|------------------------------------------|
|-------9-------10-------12--10-9-10--9/7--|
|-10-10---10-10----10-10-------------------|
|------------------------------------------|

that's the intro play it fairly fast and you'll get the gist of it.
Tap to rate this tab
# A B C D E F G H I J K L M N O P Q R S T U V W X Y Z