Song name
# A B C D E F G H I J K L M N O P Q R S T U V W X Y Z

Misc Unsigned Bands - Lies Like Me - Abandond And Alone tab

Help us improve GuitareTab! Take a short survey!
-----------------------------------------------------------------------------------|
-------------Abandond and Alone - Lies Like Me-------------------------------------|
-----------------------------------------------------------------------------------|
Tabbed by:Shaine Kuczynski (skylinekid_321)
Email:mortallord_46@hotmail.com

This is mostly in acoustic i havent found out the electric part in the outro tho...and 
the chorus there is two guitars and iknow the rhythm guitar...i just learned this song 5 
ago but i know what i have is right

Tuning:Standard
intro Rhythm Guitar
e|-------------------------------------------------------------------------|
B|-------------------------------------------------------------------------|
G|-------------------------------------------------------------------------|
D|--11--11-11--11-11---2--2-2--2-2---6--6-6--6-6--7--7-7/9-9--9------------|
A|--11--11-11--11-11---2--2-2--2-2---6--6-6--6-6--7--7-7/9-9--9------------|
E|--9---9--9---9--9----0--0-0--0-0---4--4-4--4-4--5--5-5/7-7--7------------|

e|-------------------------------------------------------------------------|
B|-------------------------------------------------------------------------|
G|-------------------------------------------------------------------------|
D|--11--11-11--11-11---2--2-2--2-2---6--6-6--6-----------------------------|
A|--11--11-11--11-11---2--2-2--2-2---6--6-6--6-----------------------------|
E|--9---9--9---9--9----0--0-0--0-0---4--4-4--4-----------------------------|

Verse 1 (x2)Rhythm Guitar
e|-------------------------------------------------------------------------|
B|-------------------------------------------------------------------------|
G|-------------------------------------------------------------------------|
D|--11--11-11--11-11---2--2-2--2-2---6--6-6--6-6--7--7-7/9-9--9------------|
A|--11--11-11--11-11---2--2-2--2-2---6--6-6--6-6--7--7-7/9-9--9------------|
E|--9---9--9---9--9----0--0-0--0-0---4--4-4--4-4--5--5-5/7-7--7------------|

e|-------------------------------------------------------------------------|
B|-------------------------------------------------------------------------|
G|-------------------------------------------------------------------------|
D|--11--11-11--11-11---2--2-2--2-2---6--6-6--6-----------------------------|
A|--11--11-11--11-11---2--2-2--2-2---6--6-6--6-----------------------------|
E|--9---9--9---9--9----0--0-0--0-0---4--4-4--4-----------------------------|

Chorus (x5)Rhythm Guitar
e|------------------------------|
B|------------------------------|
G|------------------------------|
D|--11--------9---------7-------|
A|--11(x8)----9-(x8)----7-x16)--|
E|--9---------7---------5-------|

Verse 2 (x2) Rhythm Guitar
e|-------------------------------------------------------------------------|
B|-------------------------------------------------------------------------|
G|-------------------------------------------------------------------------|
D|--11--11-11--11-11---2--2-2--2-2---6--6-6--6-6--7--7-7/9-9--9------------|
A|--11--11-11--11-11---2--2-2--2-2---6--6-6--6-6--7--7-7/9-9--9------------|
E|--9---9--9---9--9----0--0-0--0-0---4--4-4--4-4--5--5-5/7-7--7------------|

e|-------------------------------------------------------------------------|
B|-------------------------------------------------------------------------|
G|-------------------------------------------------------------------------|
D|--11--11-11--11-11---2--2-2--2-2---6--6-6--6-----------------------------|
A|--11--11-11--11-11---2--2-2--2-2---6--6-6--6-----------------------------|
E|--9---9--9---9--9----0--0-0--0-0---4--4-4--4-----------------------------|

Chorus (x5) Rhythm Guitar
e|------------------------------|
B|------------------------------|
G|------------------------------|
D|--11--------9---------7-------|
A|--11(x8)----9-(x8)----7-x16)--|
E|--9---------7---------5-------|

i can't figure out the outro or the second guitar in the chorus yet but i will update 
when i figure it out you can find this song at myspace.com/lieslikeme...i have played this 
about 10 times in the last half hour so im 99% sure its correct
| /  slide up
| \  slide down
| h  hammer-on
| p  pull-off
| ~  vibrato
| +  harmonic
| x  Mute note
===============================================================================
Related for Lies Like Me - Abandond And Alone tab