Guitaretab - guitar tabs
Song name
# A B C D E F G H I J K L M N O P Q R S T U V W X Y Z

Misc Unsigned Bands - Right Side Of The Tree - Soulja Boy Acoustic tab

-------------------------------------------------------------------------------
			    Right Side of the Tree - Soulja Boy acoustic
-------------------------------------------------------------------------------
Tabbed by: Ben
Email:

This is my first tab. Hope it serves you well.  Sounds pretty accurate.   Just listen to 
song to figure out the strumming.


Tuning: Standard
               Capo on 2nd Fret


"Intro"/Chorus  Chords  x6 (listen to song for rhythm)
e|----3-------3-------3-------3-------3-------3------------------------------------|
B|----3-------3-------3-------3-------3-------3------------------------------------|
G|----0-------0-------0-------0-------0-------0------------------------------------|
D|----0-------0-------0-------0-------0-------0------------------------------------|
A|----0-------2-------3-------0-------3-------2------------------------------------|
E|----3-------X-------X-------X-------X-------X------------------------------------|

[ Tab from: http://www.guitaretab.com/m/misc-unsigned-bands/104562.html ]
Verse "Watch me lean and watch me rock..."    x6
e|----3-------3-------3-------3----------------------------------------------------|
B|----3-------3-------3-------3----------------------------------------------------|
G|----0-------0-------0-------0----------------------------------------------------|
D|----0-------0-------0-------0----------------------------------------------------|
A|----0-------3-------2-------0----------------------------------------------------|
E|----3-------X-------X-------X----------------------------------------------------|


Back to "Intro"/Chorus "Soulja boy off in this hoe"  x6


Bridge "Soulja Boy tell 'em"  x3 (listen to song from rhythm)
e|----3-------3-------3-------3-------3-------3------------------------------------|
B|----3-------3-------3-------3-------3-------3------------------------------------|
G|----0-------0-------0-------0-------0-------0------------------------------------|
D|----0-------0-------0-------0-------0-------0------------------------------------|
A|----0-------3-------2-------3-------2-------0------------------------------------|
E|----3-------X-------X-------X-------X-------X------------------------------------|

enjoy =)
Related for Right Side Of The Tree - Soulja Boy Acoustic tab