Song name
# A B C D E F G H I J K L M N O P Q R S T U V W X Y Z

Misc Unsigned Bands - Ran - Pandangan Pertama tab

Ini tab untuk Pandangan Pertama. (Please be nice, my first time posting a tab)

By kidroach~

Intro/Verse 1

E:-----------------------------------------------------------------------|
A:-----------------------------------------------------------------------|
D:--5-----5-----5----------5-----5--------3---3---3---3------------------|
G:--4-----4-----4----------4-----4--------2---2---2---2------------------|
B:--3h4---3h4---3h4--------3h4---3h4------1---1---1---1------------------|
e:--3-----3-----3----------3-----3--------1---1---1---1------------------|


Pre-Chorus (Listen for Strumming)

     Em    Dm    Em    Dm    Em    Dm    F     G
E:---0-----------0-----------0-----------1-----3------------------------|
A:---2-----------2-----------2-----------3-----2------------------------|
D:---2-----0-----2-----0-----2-----0-----3-----0------------------------|
G:---0-----2-----0-----2-----0-----2-----2-----0------------------------|
B:---0-----3-----0-----3-----0-----3-----1-----3------------------------|
e:---0-----1-----0-----1-----0-----1-----1-----3------------------------|


Chorus (Listen for Strumming)

         C          E     Am    C     C7         F
E:------------------0----------------------------1-----------------------|
A:-------3----------2-----0-----3-----3----------3-----------------------|
D:-------2----------2-----2-----5-----5----------3-----------------------|
G:-------0----------1-----2-----5-----3----------2-----------------------|
B:-------1----------0-----1-----5-----5----------1-----------------------|
e:-------0----------0-----0-----3-----3----------1-----------------------|

         Em         Am          Dm         F
E:-------0---------------------------------1-----------------------------|
A:-------2----------0----------------------3-----------------------------|
D:-------2----------2-----------0----------3-----------------------------|
G:-------1----------2-----------2----------2-----------------------------|
B:-------0----------1-----------3----------1-----------------------------|
e:-------0----------0-----------1----------1-----------------------------|

Repeat 3x


Bridge
         F          Em    Am         Dm         C     C7
E:-------1----------0----------------------------------------------------|
A:-------3----------2-----0---------------------3-----3------------------|
D:-------3----------2-----2----------0----------5-----5------------------|
G:-------2----------0-----2----------2----------5-----3------------------|
B:-------1----------0-----1----------3----------5-----5------------------|
e:-------1----------0-----0----------1----------3-----3------------------|


         F          Em    Am         Dm         G
E:-------1----------0---------------------------3------------------------|
A:-------3----------2-----0---------------------2------------------------|
D:-------3----------2-----2----------0----------0------------------------|
G:-------2----------0-----2----------2----------0------------------------|
B:-------1----------0-----1----------3----------3------------------------|
e:-------1----------0-----0----------1----------3------------------------|


Rap/Outro( ~ : Half beat transition)

       C     Bm~E  Am7   Gm~C  Fmaj7 Em7   Dm7   G
E:--------------0--------3-----------0-----------3-----------------------|
A:-----3-----2--2--0-----5--3--------2-----------2-----------------------|
D:-----5-----4--2--2-----5--2--3-----2-----0-----0-----------------------|
G:-----3-----4--1--0-----3--0--2-----0-----2-----0-----------------------|
B:-----5-----3--0--1-----3--1--1-----3-----1-----3-----------------------|
e:-----3-----2--0--0-----3--0--0-----3-----1-----3-----------------------|

Not the whole solo, but just what I played.

Solo~

E:-----------------------------------------------------------------------|
A:-----------------------------------------------------------------------|
D:----------------------------12------------10--12-----------------------|
G:--------------12--12--9--9------9--12--9-------------------------------|
B:--11p10h11p10----------------------------------------------------------|
e:-----------------------------------------------------------------------|


E:-----------------------------------------------------------------------|
A:---------------------------------------10--10h12-----10h12-------------|
D:---10--12---------------------------9-------------9---------9----------|
G:-----------9--10--12-12-12------12-------------------------------------|
B:----------------------------10-----------------------------------------|
e:-----------------------------------------------------------------------|


E:-----------------------------------------------------------------------|
A:-----------------------------------------------------------------------|
D:---10h12-----10h12-----------------------------------------------------|
G:----------9---------9--10--12-12-12------------------------------------|
B:-------------------------------------10--12--10------------------------|
e:-----------------------------------------------------------------------|

Copyright~ KIDRoach


http://www.myspace.com/myranspace
Tap to rate this tab
 
# A B C D E F G H I J K L M N O P Q R S T U V W X Y Z