Song name
# A B C D E F G H I J K L M N O P Q R S T U V W X Y Z

Misc Unsigned Bands - Me Naked - Scars tab

This isn't on our music player, but it's one of our songs.
www.myspace.com/menaked

Intro/verse
e|-----------------------------------------|
B|-----------------------------------------|
G|-----------------------------------------|
D|-8p5-5-5-6p5-5-5-8p5-5-5-6p5p0-1-0-3p1p0-|
A|-8p5-5-5-6p5-5-5-8p5-5-5-6p5p0-1-0-3p1p0-|
D|-8p5-5-5-6p5-5-5-8p5-5-5-6p5p0-1-0-3p1p0-|

Chorus
e|-----------------------------------|
B|-----------------------------------|
G|-----------------------------------|
D|-0-0-0-0-0-0-0-0-0-0-0-0-0-0-0-6-5-|
A|-0-0-0-0-0-0-0-0-0-0-0-0-0-0-0-6-5-|
D|-0-0-0-0-0-0-0-0-0-0-0-0-0-0-0-6-5-|

Breakdown

e|----------------------------------------------------------------|
B|----------------------------------------------------------------|
G|----------------------------------------------------------------|
D|--------------------------------------------------6p0-0-5p0-0-3-|
A|-----------6p5--------------6-8-----------6p5-----6p0-0-5p0-0-3-|
D|-0-0-0-0-0----8p6-0-0-0-0-0-----0-0-0-0-0-----8p6-6p0-0-5p0-0-3-|

Song Structure

Intro/verse - Six Times
Chorus - Four Times
Intro/verse - Six Times
Chorus - Four Times
Breakdown - Four Times
Chorus - Four Times
Intro/verse - Six Times
Chorus - Eight Times
Tap to rate this tab
 
# A B C D E F G H I J K L M N O P Q R S T U V W X Y Z