Song name
# A B C D E F G H I J K L M N O P Q R S T U V W X Y Z

Misc Unsigned Bands - Zachary Bown - All I Need tab

5    5   5
-----2---3--------------2-2--2-2---3-3--3-3|
-2---3-------2-2--2-2---3-3--3-3-----------|
-2---2-------2-2--2-2---2-2--2-2-----------|
-2-----------2-2--2-2----------------------|
---------2-------------------------2-2--2-2|
---------3-------------------------3-3--3-3|
solo
-----------8-9----9-8- 10-12----------|
---------9b-----9b----------10b-------|
-2s-----7------7----------------12----|
----------------------------------10--|b
--------------------------------------|
--------------------------------------|

play through 3 times
Tap to rate this tab
 
# A B C D E F G H I J K L M N O P Q R S T U V W X Y Z