Song name
# A B C D E F G H I J K L M N O P Q R S T U V W X Y Z

Misc Unsigned Bands - Riot99 - Holding On tab

-------------------------------------------------------------------------------
			     Holding On - RIOT99
                         http://www.purevolume.com/RIOT99
-------------------------------------------------------------------------------
Tabbed by:RIOT99
Email:ratbagryan@hotmail.com

Tuning:DADGBE

Hey guys this is a work in progress, Tabbing it as we go.
Cheers Riot99


                                INTRO
e|-------------------------------------------------|
B|-------------------------------------------------|
G|------------------------------------------------.|
D|--7-7-7-9----1010109-----3-3-3-5----5-5-5-7-----.|
A|--7-7-7-7----7-7-7-7-----3-3-3-3----5-5-5-5------|
D|--7-7-7-7----7-7-7-7-----3-3-3-3----5-5-5-5------|
                              Repeat x2


                                 Verse
e|----------------------------------------------|
B|----------------------------------------------|
G|---------------------------------------------.|
D|-3-x-x-5----5-x-x-7---12121415----10101312---.|
A|-3-x-x-3----5-x-x-5---12121212----10101010----|
D|-3-x-x-3----5-x-x-5---12121212----10101010----|


Tap to rate this tab
# A B C D E F G H I J K L M N O P Q R S T U V W X Y Z