Song name
# A B C D E F G H I J K L M N O P Q R S T U V W X Y Z

Misc Unsigned Bands - Memphis May Fire - Conjunctions Conjunctions Everybody Loves Them tab

All right here's my first tab at all, so if there is any mistake it's cause im
not used to write tabs. May be the tab isn't it 100% accurrate but it's pretty
pretty close, so if you want to fix something email me. Another thing, if someone
can tab the song Cowbell's Makin' A Comeback i'll be very happy :), bye.

Heavy Dist.


 D#|--------------------------------------------------|
 A#|-------------------------------------------7------|
 F#|-------------------------------------------10-----|
 C#|--------------------------------------------------|
 G#|-----------5---------5-----------5----------------|
 C#|----0h3h5p3-----0h3-5-------3h5p3----0h3-5--------|

 D#|--------------------------------------------------|
 A#|--------------------------------------------------|
 F#|--------------------------------------------------|
 C#|--------------------------------------------------|
 G#|-----------5---------5-----------5--6-5-3---------|
 C#|----0h3h5p3-----0h3-5-----3h5p3-----6-5-3---------| repeat from the
                                                        bigining
Then this (do it faster and it i'll sound good)

 D#|-----------------------|
 A#|-----------------------|
 F#|-----------------------|
 C#|-----------------------|
 G#|--6p5p3p0-3h5p3p0------|
 C#|-----------------------|

Again this, but just one time

 D#|--------------------------------------------------|
 A#|-------------------------------------------7------|
 F#|-------------------------------------------10-----|
 C#|--------------------------------------------------|
 G#|-----------5---------5-----------5----------------|
 C#|----0h3h5p3-----0h3-5-------3h5p3----0h3-5--------|

 D#|--------------------------------------------------|
 A#|--------------------------------------------------|
 F#|--------------------------------------------------|
 C#|--------------------------------------------------|
 G#|-----------5---------5-----------5--6-5-3---------|
 C#|----0h3h5p3-----0h3-5-----3h5p3-----6-5-3---------|

Then this

 D#|--------------------------------------------------|
 A#|----6-6------6-6-6-6-6-6----------6-6-6-6-6-6-----|
 F#|----9-9------9-9-9-9-9-9----------9-9-9-9-9-9-----|
 C#|--------------------------------------------------|
 G#|---------0----------------0-0-0-------------------|
 C#|---------0----------------0-0-0-------------------|
            P.M.               P.M.
 D#|--------------------------------------------------|
 A#|---7--7--7--7--7--7---------7--7--7--7--7--7------|
 F#|---10-10-10-10-10-10--------10-10-10-10-10-10-----|
 C#|--------------------------------------------------|
 G#|-0--------------------0-0-0--------------------1/-|
 C#|-0--------------------0-0-0--------------------1/-|
    P.M.                   P.M.

 D#|--------------------------------------------------|
 A#|-----6-6-6-6-6-6----------6-6-6-6-6-6-------------|
 F#|-----9-9-9-9-9-9----------9-9-9-9-9-9-------------|
 C#|--------------------------------------------------|
 G#|------------------0-0-0---------------------------|
 C#|------------------0-0-0---------------------------|
                       P.M.
 D#|---------------------------------------------------|
 A#|---7--7--7--7--7--7---------7--7--7--7--7--7-------|
 F#|---10-10-10-10-10-10--------10-10-10-10-10-10------|
 C#|---------------------------------------------------|
 G#|-0--------------------0-0-0--------------------12\-|
 C#|-0--------------------0-0-0--------------------12\-|
    P.M.                   P.M.

Pre-Solo

 D#|-------------------------------------------------|
 A#|-------------------------------------------------|
 F#|-------------------------------------------------|
 C#|-------------------------------------------------|
 G#|--3333333333333333--55--0000000000000000---------|
 C#|--3333333333333333--55--0000000000000000---------|x2

End on

 D#|-----|
 A#|-----|
 F#|-----|
 C#|--0--|
 G#|--0--|   Let it ring, but muted
 C#|--0--|
     P.M.

Solo (it's not 100% accurrate, sorry)

 D#|-(almost full)-----------------------------------|
 A#|------b9-----------------------------------------|
 F#|------b12----10~--9h10h12p10-7h9p7/5-5*----------|
 C#|-------------------------------------------------|
 G#|-------------------------------------------------|
 C#|-------------------------------------------------|

 D#|--0h10h12p10--10----------------------------------------------|
 A#|-------------12-12---10-7-9-----------------------------------|
 F#|-------------------7*------7*-9h10h12p10p9-7h9p7--7-----------|
 C#|------------------------------------------------10-10-9-7-----|
 G#|---------------------------------------------------------10-8~|
 C#|--------------------------------------------------------------|

Pre-Interlude

 D#|---------------------------------------------------------------|
 A#|-------------------------------------------------------------8-|
 F#|-------------------------------------------------------------11|
 C#|---------------------------------------------------------------|
 G#|-0h2h3-0h2h3-0h2h3-5-0h2h3-0h2h3-0h2h3-5-0h2h3-0h2h3-0h2h3-5---|
 C#|---------------------------------------------------------------|


 D#|---------------------------------------------------------------|
 A#|---------------------------------------------------------------|
 F#|---------------------------------------------------------------|
 C#|---------------------------------------------------------------|
 G#|-0h2h3-0h2h3-0h2h3-5-0h2h3-0h2h3-0h2h3-5-0h2h3-0h2h3-0h2h3-5---|
 C#|------------------------------------------------------------3~-|  repeat
                                                           from the bigining

Interlude (Clean)

There are 3 chords, im not sure of one if it's right or not
and figure out the strumming and time of each one it's easy. Play it just
one time

 D#|--0--|--0--|--0-----------------------------|
 A#|--10-|--6--|--10--|Im not sure of this one--|
 F#|--10-|--7--|--10----------------------------|
 C#|--8--|--7--|--0-----------------------------|
 G#|--8--|--0--|--8-----------------------------|
 C#|-(8)-|--0--|--10----------------------------| x1

then

 D#|--0--|
 A#|--10-| keep playing it until it comes with distortion and play it pretty
 F#|--10-| fast
 C#|--8--|
 G#|--8--|
 C#|-(8)-|

Then (with distortion)

 D#|--0--|--0--|--0---|
 A#|--10-|--6--|--10--|
 F#|--10-|--7--|--10--|
 C#|--8--|--7--|--0---|
 G#|--8--|--0--|--8---|
 C#|-(8)-|--0--|--10--|

 D#|--0--|--0--|--0---|
 A#|--10-|--6--|--10--|
 F#|--10-|--7--|--10--|
 C#|--8--|--7--|--8---|
 G#|--8--|--0--|--8---|
 C#|-(8)-|--0--|-(8)--|  all this x2, figured out the strumig, its almost the
                                                              same clean part

End on
 D#|-------|
 A#|-------|
 F#|-------|
 C#|-------|
 G#|-3653--|
 C#|-3653--|

Pre-Outro

 D#|-------------------------------------------------|
 A#|---9---------------------------------------------|
 F#|---12--------------------------------------------|
 C#|-------------------------------------------------|
 G#|-00---000-0-0------------------------------------|
 C#|-00---000-0-0--3~--0h5h6p0-0h3h5p0---------------|
    P.M.  P.M.P.M.      (do it fast)

 D#|-------------------------------------------------|
 A#|---9---------------------------------------------|
 F#|---12--------------------------------------------|
 C#|-------------------------------------------------|
 G#|-00---000-0-0------------------------------------|
 C#|-00---000-0-0--3~--0h5h7p0-0h3h4p0---------------|
    P.M.  P.M.P.M.      (do it fast)

 D#|-------------------------------------------------|
 A#|---9---------------------------------------------|
 F#|---12--------------------------------------------|
 C#|-------------------------------------------------|
 G#|-00---000-0-0------------------------------------|
 C#|-00---000-0-0--3~--0h5h6p0-0h3h5p0---------------|
    P.M.  P.M.P.M.      (do it fast)

 D#|-------------------------------------------------|
 A#|---9---------------------------------------------|
 F#|---12--------------------------------------------|
 C#|-------------------------------------------------|
 G#|-00---000-0-0------56----------------------------|
 C#|-00---000-0-0--3~--56----------------------------|
    P.M.  P.M.P.M.

 D#|-------------------------------------------------|
 A#|---9---------------------------------------------|
 F#|---12--------------------------------------------|
 C#|-------------------------------------------------|
 G#|-00---000-0-0------------------------------------|
 C#|-00---000-0-0--3~--0h5h6p0-0h3h5p0---------------|
   (Play  P.M.P.M.      (do it fast)
  it hard)

D#|----------------------------------------------------|
 A#|---9-----------------------------------------------|
 F#|---12----------------------------------------------|
 C#|---------------------------------------------------|
 G#|-00---000-0-0--------------------------------------|
 C#|-00---000-0-0--3~--0h5h7p0-0h3h4p0-----------------|
    P.M.  P.M.P.M.      (do it fast)

 D#|-------------------------------------------------|
 A#|---9---------------------------------------------|
 F#|---12--------------------------------------------|
 C#|-------------------------------------------------|
 G#|-00---000-0-0------------------------------------|
 C#|-00---000-0-0--3~--0h5h6p0-0h3h5p0---------------|
    P.M.  P.M.P.M.      (do it fast)

D#|--------------------------------------------------------|
 A#|---9---------------------------------------------------|
 F#|---12--------------------------------------------------|
 C#|-------------------5---5-------------------------------|
 G#|-00---000-0-0------5-6-5-6-----------------------------|let it ring
 C#|-00---000-0-0--3~----6---6-----------------------------|those sixs
    P.M.  P.M.P.M.

 D#|------------|
 A#|------------| the slide down
 F#|------------|it got to be
 C#|------------| more strong      or you can do this
 G#|-1/12\1-----|                after the 3 hi-hat thing.
 C#|-1/12\1-----|               in a video on youtube goes like that
                                        and it sound pretty good
  (optional)
 D#|---------|
 A#|--H5-----|
 F#|--H5-----|
 C#|---------|
 G#|---------|
 C#|---------|

Outro

 D#|--------------------------------------------------|
 A#|-------------------------------------------7------|
 F#|-------------------------------------------10-----|
 C#|--------------------------------------------------|
 G#|-----------5---------5-----------5----------------|
 C#|----0h3h5p3-----0h3-5-------3h5p3----0h3-5--------|

 D#|--------------------------------------------------|
 A#|--------------------------------------------------|
 F#|--------------------------------------------------|
 C#|--------------------------------------------------|
 G#|-----------5---------5-----------5--6-5-3---------|
 C#|----0h3h5p3-----0h3-5-----3h5p3-----6-5-3---------|


 D#|-------------------------------------------|
 A#|-------------------------------------------|
 F#|-------------------------------------------|
 C#|-------------------------------------------|
 G#|-0-0-0-0-0-0-0-0-0-000000000000000-0-0-0---|let it ring
 C#|-0-0-0-0-0-0-0-0-0-000000000000000-0-0-0---|

Ends on


 D#|---|
 A#|---|
 F#|---|
 C#|-0-|
 G#|-0-|
 C#|-0-|


well that's all, any suggestion let me know, i upload a video on youtube if you
want to see it here it is: watch?v=VqIC_srrz7k
love to Chile, bye
Tap to rate this tab
# A B C D E F G H I J K L M N O P Q R S T U V W X Y Z