Song name
# A B C D E F G H I J K L M N O P Q R S T U V W X Y Z

Misc Unsigned Bands - Secret And Whisper - Vanishings tab

----------------------------------------------------------------------------------
---------Vanishings - Secret and Whisper
----------------------------------------------------------------------------------
Tabbed by:JMAO[311}

Email:XduffsX360X@aol.com

Tuning:Drop C

e|---------------------------------------------------------15----------------|
B|--17-17--------------------------17-17----------------------15-------------|
G|--------14-14-16-16-17-17-17-17--------14-14-16-16-17-17-------------------|
D|---------------------------------------------------------------------------|
A|---------------------------------------------------------------------------|
E|---------------------------------------------------------------------------|

e|------------------------------------/20~-19-19h20p19-15~-------------------|
B|--17-17--------------------------------------------------------------------|
G|--------14-14-15-15-17-17-17-17--------------------------------------------|
D|---------------------------------------------------------------------------|
A|---------------------------------------------------------------------------|
E|---------------------------------------------------------------------------|

e|---------------------------------------------------------15----------------|
B|--17-17--------------------------17-17----------------------15-------------|
G|--------14-14-16-16-17-17-17-17--------14-14-16-16-17-17-------------------|
D|---------------------------------------------------------------------------|
A|---------------------------------------------------------------------------|
E|---------------------------------------------------------------------------|

e|---------------------------------------------------------------------------|
B|--17-17--------------------------------------------------------------------|
G|--------14-14-15-15-17-17-17-17------/17~-16-16h17p16-\12-/14~-------------|
D|---------------------------------------------------------------------------|
A|---------------------------------------------------------------------------|
E|---------------------------------------------------------------------------|

link:http://www.toothandnail.com/artist_releaseinfo.php?id=300

| /  slide up
| \  slide down
| h  hammer-on
| p  pull-off
| ~  vibrato
| +  harmonic
| x  Mute note
===============================================================================
Tap to rate this tab
 
# A B C D E F G H I J K L M N O P Q R S T U V W X Y Z