Guitaretab - guitar tabs
Song name
# A B C D E F G H I J K L M N O P Q R S T U V W X Y Z

Misc Unsigned Bands - Gwen Stacy - Challenger Part 2 tab

Artist: Gwen Stacy  
Song: Challenger Part 2
Album: The Life I Know

My e-mail: poppyben@gmail.com

www.myspace.com/gwenstacy

Legend
S  slide
X  Mute note
V  Vibrato
*(P.H) - Pinch Harmonic
*(N.H)  Natural Harmonic
p  pull-off
h  hammer-on

Tuning: Drop C

(0:00-0:06)Intro/Verse (Guitar 1&2)
D|-----------------------------------------------------------------|
A|-----------------------------------------------------------------|
F|--------------------------------------13-13---1313---------------|
C|---4-4-4---555555554444111166666666----x--x----x-x---------------|
G|---4-4-4---555555554444111166666666---11-11---1111---------------|
C|---4-4-4---555555554444111166666666------------------------------|

(0:07-0:12)
D|-----------------------------------------------------------------|
A|-----------------------------------------------------------------|
F|------------------------------13-13---131313---------------------|
C|---555555554444111166666666----x--x----x-x-x---------------------|
G|---555555554444111166666666---11-11---111111---------------------|
C|---555555554444111166666666--------------------------------------|

(0:12-0:18)
D|-----------------------------------------------------------------|
A|-----------------------------------------------------------------|
F|------------------------------13-13---1313-----------------------|
C|---555555554444111166666666----x--x----x-x-----------------------|
G|---555555554444111166666666---11-11---1111-----------------------|
C|---555555554444111166666666--------------------------------------|

(0:18-0:21)
D|------------------------------|
A|------------------------------|
F|---------------4444-----------|
C|---555555554444xxxx-----------|
G|---5555555544442222-----------|
C|---555555554444---------------|

(0:21-0:27)Prelude (Guitar 1&2)
D|-------------------------------------------------------|
A|---------------------5-5--5---5-5--5-------------------|
F|---6-6--6---6-6--6---6-6--6---6-6--6-------------------|
C|---x-x--x---x-x--x---x-x--x---x-x--x-------------------|
G|---4-4--4---4-4--4---4-4--4---4-4--4-------------------|
C|-------------------------------------------------------|

(0:27-0:39)Chorus (Guitar 1&2)
D|----------------------------------------|
A|----------------------------------------|
F|--13--12---13s12---13--12---12s13-------|
C|---x--x-----x--x----x---x----x--x-------|
G|--11--10---11s10---11--10---10s11-------|
C|----------------------------------------|x4

(0:39-0:45) Interlude (Part 1) (Guitar 1&2)
D|-------------------------------------------------------|
A|---------------------5-5--5---5-5--5-------------------|
F|---6-6--6---6-6--6---6-6--6---6-6--6-------------------|
C|---x-x--x---x-x--x---x-x--x---x-x--x-------------------|
G|---4-4--4---4-4--4---4-4--4---4-4--4-------------------|
C|-------------------------------------------------------|

(0:45-0:54)Interlude (Part 2)(Guitar 1&2)
D|--0--000-0-0----------------|
A|--0--000-0-0----------------|
F|----------------------------|
C|-1--1---1-1------1----------|
G|-1--1---1-1------1----------|
C|-1--1---1-1------1----------|x2

(0:56-1:08)Breakdown (Guitar 1&2)
D|-------------------------------------------------------|
A|-------------------------------------------------------|
F|-------------------------------------------------------|
C|-0~00000-000---000--00000--000----------------44444444-|
G|-0~00000-000---000--00000--000(repeat, then)-44444444-|
C|-0~00000-000---000--00000--000----------------44444444-|
PM . ..... ...   ...  .....  ...

(1:08-1:14)Verse 2 (Guitar 1&2) 
D|-----------------------------------------------------------------|
A|-----------------------------------------------------------------|
F|------------------------------13-13---1313-----------------------|
C|---555555554444111166666666----x--x----x-x-----------------------|
G|---555555554444111166666666---11-11---1111-----------------------|
C|---555555554444111166666666--------------------------------------|

(1:14-1:29)Then Guitar 1
D|-----------------------------------------------------------------|
A|-----------------------------------------------------------------|
F|---16-------15-------12--------17--------13-13---131313----------|
C|----x(x8)---x(x4)---x(x4)----x(x8)----x--x----x-x-x----------|
G|---14-------13-------10--------15--------11-11---111111----------|
C|-----------------------------------------------------------------|x3
[ Tab from: http://www.guitaretab.com/m/misc-unsigned-bands/104812.html ]
(1:14-1:29)Guitar 2
D|-----------------------------------------------------------------|
A|-----------------------------------------------------------------|
F|------------------------------13-13---131313---------------------|
C|---555555554444111166666666----x--x----x-x-x---------------------|
G|---555555554444111166666666---11-11---111111---------------------|x3
C|---555555554444111166666666--------------------------------------|x3


(1:29-1:34)Interlude 2 Part 1 (Guitar 1&2)
D|-------------------------------------------------------|
A|-------------------------------------------------------|
F|---12--12-12---12--12-12---12--12-12---12--12-12-------|
C|----x---x--x----x---x--x----x---x--x----x--x--x--------|
G|---10--10-10---10--10-10---10--10-10---10--10-10-------|
C|-------------------------------------------------------|

(1:34-1:41)Interlude 2 Part 2 (Guitar 1&2)
D|-------------------------------------------------------|
A|---11--11-11---11--11-11---11--11-11---11--11-11-------|
F|---12--12-12---12--12-12---12--12-12---12--12-12-------|
C|----x---x--x----x---x--x----x---x--x----x--x-x---------|
G|---10--10-10---10--10-10---10--10-10---10--10-10-------|
C|-------------------------------------------------------|


(1:41-1:44)Prelude to Breakdown (Guitar 1)
D|----------------------|
A|----------------------|
F|----------------------|
C|--0000--000--0-000----|
G|--0000--000--0-000----|
C|--0000--000--0-000----|
PM  ....  ...  . ...

(1:44-1:49)Breakdown 2 (Guitar 1&2))
D|-----------------------| 
A|-----------------------|
F|-----------------------|
C|--00000--000--0-000----|
G|--00000--000--0-000----|
C|--00000--000--0-000----|x2
PM  .....  ...  . ...

(1:49-1:53)(Guitar 1)
D|-------------------------------|
A|-------------------------------|
F|--------------13-13--131313----|
C|--00000--000---xx----x-x-x----|
G|--00000--000--11-11--111111----|
C|--00000--000-------------------|
PM  .....  ...

(1:49-1:53)(Guitar 2)
D|------------------------|
A|------------------------|
F|------------------------|
C|--00000--000--0-000-----|
G|--00000--000--0-000-----|
C|--00000--000--0-000-----|
PM  .....  ...  . ...

(1:53-1:56)Then (Guitar 1&2)
D|-----------------------|
A|-----------------------|
F|-----------------------|
C|--00000--000---000-----|
G|--00000--000---000-----|
C|--00000--000---000-----|
PM  .....  ...   ...

(1:56-2:05)Listen to song for timing (Guitar 1 and 2)
D|--------------------------------------------/
A|--------------------------------------------/
F|--------------------------------------------/
C|---0--0----00--0---0-0---0---000---0-4~----/
G|---0--0----00--0---0-0---0---00-0---0-4~----/
C|---0--0----00--0---0-0---0---00-0---0-4~----/

(2:06-2:11)
D|--0--000-0------------------|
A|--0--000-0------------------|
F|----------------------------|
C|-1--1---1--1-4-3-8----------|
G|-1--1---1--1-4-3-8----------|
C|-1--1---1--1-4-3-8----------|

(2:11-2:22)Play 5s on second repeat.
D|-------------------------------------------------------|
A|--(5-5--5---5-5--5---5-5--5---5-5-5)------------------|
F|---6-6--6---6-6--6---6-6--6---6-6--6-------------------|
C|---x-x--x---x-x--x---x-x--x---x-x--x-------------------|
G|---4-4--4---4-4--4---4-4--4---4-4--4-------------------|
C|-------------------------------------------------------|x2

(2:23-2:35)Chorus (Guitar 1 x2)(Guitar 2 x4)
D|----------------------------------------|
A|----------------------------------------|
F|--13--12---13s12---13--12---12s13-------|
C|---x--x-----x--x----x---x----x--x-------|
G|--11--10---11s10---11--10---10s11-------|
C|----------------------------------------|

(2:29-2:35)Chorus cont. (Guitar 1 on 3rd and 4th repeat play this)
D|------------------------------------|
A|---13-12---13s12---13-12---12s13----|
F|----x--x----x-x-----x--x---x--x-----|
C|---10--9---10s9----10--9---9s10-----|
G|------------------------------------|
C|------------------------------------|x2

(2:35-2:44)Listen to song for timing (Guitar 1 and 2)
D|--------------------------------------------/
A|--------------------------------------------/
F|--------------------------------------------/
C|---0--0----00--0---0-0---0---000---0-4~----/
G|---0--0----00--0---0-0---0---00-0---0-4~----/
C|---0--0----00--0---0-0---0---00-0---0-4~----/

(2:44-2:50)Glitchy random noises, then open.

(2:53-3:05)Breakdown (Guitar 1&2)
D|-------------------------------------------------------|
A|-------------------------------------------------------|
F|-------------------------------------------------------|
C|-0~00000-000---000--00000--000----------------12s0-----|
G|-0~00000-000---000--00000--000(repeat, then)-12s0-----|
C|-0~00000-000---000--00000--000----------------12s0-----|
PM . ..... ...   ...  .....  ...

(3:05-3:21)Breakdown cont. (Guitar 1&2)
D|-------------------------------------------------------|
A|-------------------------------------------------------|
F|-------------------------------------------------------|
C|-0~00000-000---000--00000--000----------------0-4~-----|
G|-0~00000-000---000--00000--000(repeat, then)-0-4~-----|
C|-0~00000-000---000--00000--000----------------0-4~-----|
PM . ..... ...   ...  .....  ...
Related for Gwen Stacy - Challenger Part 2 tab