Song name
# A B C D E F G H I J K L M N O P Q R S T U V W X Y Z

Misc Unsigned Bands - Unwanted Memory - Suffering In A Noose tab

new song i wrote the suffering in a noose

temolo slow and then faster

e---------------------------------------|
B---------------------------------------|
G---------------------------------------|
D-10--9--7---0--7--9--10----------------|
A-10--9--7---0--7--9--10----------------|
D-10--9--7---0--7--9--10----------------| X3

e-----------------------------------------|
B-----------------------------------------|
G-----------------------------------------|
D-0---7---9---10--0-7-9-10----------------|
A-0---7---9---10--0-7-9-10----------------|
D-0---7---9---10--0-7-9-10----------------|do-this-thrice

myspace.com/unwantedmemory6
Tap to rate this tab
 
# A B C D E F G H I J K L M N O P Q R S T U V W X Y Z