Song name
# A B C D E F G H I J K L M N O P Q R S T U V W X Y Z

Misc Unsigned Bands - Cover On A Leash - In Fire And Flames tab

e|------------------------|-------------------------|------------------------|
b|------------------------|--------------14---------|------------------------|
g|------------------------|------------------13-----|------------------------|
d|---------14-11--13------|--------14-11------------|---------14-11--13------|
a|---0--12-----------12---|---0--12-----------------|---0--12-----------12---|
E|------------------------|-------------------------|------------------------|

e|------------------------|----------------------------------------------------|
b|-------------------14---|-----------------14---------------------------------|
g|----------------13------|---------------------14-13~~~13-14-16~~~14-13-14-16-|
d|---------14-11----------|---------14-11--------------------------------------|
a|---0--12----------------|---0--12--------------------------------------------|
E|------------------------|----------------------------------------------------|

e|-------------------------------------|
b|------------------------14-12-12~~---|
g|-14-13-14-16--14-13-14---------------|
d|-------------------------------------|
a|-------------------------------------|
E|-------------------------------------|
Tap to rate this tab
# A B C D E F G H I J K L M N O P Q R S T U V W X Y Z