Guitaretab - guitar tabs
Song name
# A B C D E F G H I J K L M N O P Q R S T U V W X Y Z

Misc Unsigned Bands - Black December - Kathleen Griffin tab

ďKathleen GriffinĒ
By: Zach Brown

Intro
e>-------------------------------------<
B>-------------------------------------<
G>-------------------------------------<
D>-------------------------------------<
A>-0-4-5-0-2-4-5-4~--0-4-5-0-2-4-2-0~--<
E>-------------------------------------<  x3

Verse1
e>------------------------------------<
B>------------------------------------<
G>--6-6-6-6-6-6-6-6--4-4-4-4-4-4-4-4--<
D>--6-6-6-6-6-6-6-6--4-4-4-4-4-4-4-4--<
A>--4-4-4-4-4-4-4-4--2-2-2-2-2-2-2-2--<
E>------------------------------------<  x 3

Chorus
e>-----------------------------------<
B>-----------------------------------<
G>-5-5-5-5-5-5-5-5--4-4-4-4-4-4-4-4--<
D>-5-5-5-5-5-5-5-5--4-4-4-4-4-4-4-4--<
A>-3-3-3-3-3-3-3-3--2-2-2-2-2-2-2-2--<
E>-----------------------------------<  x5

Fill
e>-------------------------------------<
B>-------------------------------------<
G>-------------------------------------<
D>-------------------------------------<
A>-0-4-5-0-2-4-5-4~--0-4-5-0-2-4-2-0~--<
E>-------------------------------------<  x3

Verse 2
e>------------------------------------<
B>------------------------------------<
G>--6-6-6-6-6-6-6-6--4-4-4-4-4-4-4-4--<
D>--6-6-6-6-6-6-6-6--4-4-4-4-4-4-4-4--<
A>--4-4-4-4-4-4-4-4--2-2-2-2-2-2-2-2--<
E>------------------------------------<  x 3

Chorus
e>-----------------------------------<
B>-----------------------------------<
G>-5-5-5-5-5-5-5-5--4-4-4-4-4-4-4-4--<
D>-5-5-5-5-5-5-5-5--4-4-4-4-4-4-4-4--<
A>-3-3-3-3-3-3-3-3--2-2-2-2-2-2-2-2--<
E>-----------------------------------<  x5

Fill
e>-------------------------------------<
B>-------------------------------------<
G>-------------------------------------<
D>-------------------------------------<
A>-0-4-5-0-2-4-5-4~--0-4-5-0-2-4-2-0~--<
E>-------------------------------------<  x3

Verse 3
e> -----------------------------------<
B ------------------------------------<
G>--6-6-6-6-6-6-6-6--4-4-4-4-4-4-4-4--<
D>--6-6-6-6-6-6-6-6--4-4-4-4-4-4-4-4--<
A>--4-4-4-4-4-4-4-4--2-2-2-2-2-2-2-2--<
E>------------------------------------<  x3 

Solo
e>---3----3---5---5---33333333--55555555--3333333333333-3~~<
B>-----3--------3-----33333333--33333333--3333333333333-3~~<
G>--------------------00000000--00000000--0000000000000-0~~<
D>---------------------------------------------------------<
A>---------------------------------------------------------<
E>---------------------------------------------------------<

Verse 4
e>------------------------------------<
B>------------------------------------<
G>--6-6-6-6-6-6-6-6--4-4-4-4-4-4-4-4--<
D>--6-6-6-6-6-6-6-6--4-4-4-4-4-4-4-4--<
A>--4-4-4-4-4-4-4-4--2-2-2-2-2-2-2-2--<
E>------------------------------------<  x3 

Fill
e>-------------------------------------<
B>-------------------------------------<
G>-------------------------------------<
D>-------------------------------------<
A>-0-4-5-0-2-4-5-4~--0-4-5-0-2-4-2-0~--<
E>-------------------------------------<  x3
[ Tab from: http://www.guitaretab.com/m/misc-unsigned-bands/104910.html ]
Verse 5
e>-----------------------------------<
B> -----------------------------------<
G>--6-6-6-6-6-6-6-6--4-4-4-4-4-4-4-4--<
D>--6-6-6-6-6-6-6-6--4-4-4-4-4-4-4-4--<
A>--4-4-4-4-4-4-4-4--2-2-2-2-2-2-2-2--<
E>------------------------------------<  x3






Chorus
e>-----------------------------------<
B>-----------------------------------<
G>-5-5-5-5-5-5-5-5--4-4-4-4-4-4-4-4--<
D>-5-5-5-5-5-5-5-5--4-4-4-4-4-4-4-4--<
A>-3-3-3-3-3-3-3-3--2-2-2-2-2-2-2-2--<
E>-----------------------------------<  x5

Fill
e>-------------------------------------<
B>-------------------------------------<
G>-------------------------------------<
D>-------------------------------------<
A>-0-4-5-0-2-4-5-4~--0-4-5-0-2-4-2-0~--<
E>-------------------------------------<  x3

Chorus
e>-----------------------------------<
B>-----------------------------------<
G>-5-5-5-5-5-5-5-5--4-4-4-4-4-4-4-4--<
D>-5-5-5-5-5-5-5-5--4-4-4-4-4-4-4-4--<
A>-3-3-3-3-3-3-3-3--2-2-2-2-2-2-2-2--<
E>-----------------------------------<  x5

Fill
e>-------------------------------------<
B>-------------------------------------<
G>-------------------------------------<
D>-------------------------------------<
A>-0-4-5-0-2-4-5-4~--0-4-5-0-2-4-2-0~--<
E>-------------------------------------<  x3

Verse 7
e>------------------------------------<
B>------------------------------------<
G>--6-6-6-6-6-6-6-6--4-4-4-4-4-4-4-4--<
D>--6-6-6-6-6-6-6-6--4-4-4-4-4-4-4-4--<
A>--4-4-4-4-4-4-4-4--2-2-2-2-2-2-2-2--<
E>------------------------------------<  x5

Ending (slowly get slower)
e>-------------------------------------<
B>-------------------------------------<
G>-------------------------------------<
D>-------------------------------------<
A>-0-4-5-0-2-4-5-4~--0-4-5-0-2-4-2-0~--<
E>-------------------------------------<  x3

lyrics:

Kathleen Griffin
Well I remember the first time I saw you in the sixth grade
And thatís when my love for you started being made
Little did I know but there were a lot of speed bumps 
But that in five months
You would be the one I loved

Chorus
Kathleen Griffin
Kathleen Griffin
The first love in my life
Kathleen Griffin
Kathleen Griffin
Why donít you like me
Kathleen Griffin

Numbered were our days
Cause in the seventh grade we went our separate ways
But my love still burned for you
And there was nothing anyone could do
I didnít ask you out 
Cause I had so much doubt
Chorus

Then in the eighth grade
My wish had been made 
When we were in the same class
Then I put away my shame
And I asked you out at the football game
But you said no

Well I went walking in the dark
Thinking about you and the world I hid
That was the only thing I did
I think we could last forever
Even through nasty weather
But I guess weíll never know





Well Homecoming 07 came
Again I put away my shame 
I knew what I had to do
And I asked you
And you tied the loose ends
And said we could go as fiends
Chorus

Well Kathleen I love you
But you donít love me to
So thereís only one thing to do
Iím gonna have to move on
And act like I never liked you
Chorus

Maybe youíll be somewhere riding in a car
And youíll hear me play this song
And youíll know Iím thinking of you
So Iíll say it one last time
Not to change your mind
But I love you Kathleen
But I guess all along I knew
I wasnít meant to be with you
 
Related for Black December - Kathleen Griffin tab