Song name
# A B C D E F G H I J K L M N O P Q R S T U V W X Y Z

Misc Unsigned Bands - Karl Mohr - Rhythm Beat tab

Verse
e|------------------------------------------------------|
B|------------------------------------------------------|
G|------------------------------------------------------|
D|--------------------5555------------------------------|
A|--4444--7777--4444--3333--4444--7777--3333------------|
E|--2222--5555--2222--------2222--5555--1111------------|
Bridge
e|-------------------------------------------------------------------|
B|-------------------------------------------------------------------|
G|-------------------------------------------------------------------|
D|------44--------------44-------------------------------------------|
A|--44--22--33--22--44--22--33----77---------------------------------|
E|--22------11--00--22------11----55---------------------------------|
Verse 2
e|-------------------------------------------------------------------|
B|-------------------------------------------------------------------|
G|-------------------------------------------------------------------|
D|-------------------------------------------------------------------|
A|--7777--33--9999--44--55----33----55----22-------------------------|
E|--5555--11--7777--22--33----11----33----00-------------------------|

Bridge
Verse 1(x2)
Bridge
Verse 2
Verse 1(x1)
Bridge
Verse 2(x2)
Bridge
Tap to rate this tab
# A B C D E F G H I J K L M N O P Q R S T U V W X Y Z