Song name
# A B C D E F G H I J K L M N O P Q R S T U V W X Y Z

Misc Unsigned Bands - Polkadot Cadaver - Chloroform Girl tab

-------------------------------------------------------------------------------
			     Chloroform Girl - Polkadot Cadaver
-------------------------------------------------------------------------------
Tabbed by: Spay
Email: radar_loves_you@yahoo.com

Tuning: Standard


Verse-

e|----------------------------------------------------------------------|
B|---3------------------------------------3-----------------------------|
G|---4------------------------------------4-----------------------------|
D|---4-----------------4------------------4--------------4--------------|
A|---2-----------------4------------------2--------------4--------------|
E|---------------------2---------------------------------2--------------|
      Your eyes look just like bullet holes, it must be all that cryin'


e|-----------------------------------------------------------------------|
B|----3------------------------------------------------------------------|
G|----4--------------------------------2-2-22-22-22-22-2-----------------|
D|----4--------------4-----------------2-2-22-22-22-22-2-----------------|
A|----2--------------4-----------------0-0-00-00-00-00-0-----------------|
E|-------------------2---------------------------------------------------|
      You haven't learned a thing at all


e|---------------------------------------------------------------------|
B|---3-------------------------3---------------------------------------|
G|---4-------------------------4---------------------------------------|
D|---4--------------4----------4-------------4-------------------------|
A|---2--------------4----------2-------------4-------------------------|
E|------------------2------------------------2-------------------------|
       Another helter skelter, moonlight has come and gone

e|--------------------------------------------------------------------|
B|---3----------------------------------------------------------------|
G|---4-------------------------------2-2-22-22-22-2-------------------|
D|---4------------4------------------2-2-22-22-22-2-------------------|
A|---2------------4------------------0-0-00-00-00-0-------------------|
E|----------------2---------------------------------------------------|
      The bloody writings on the wall

Little bass line right before chorus
(I'm not entirely sure if it's right)
Note that the singer sings the word "Chloroform" over the
bass line then proceeds into the chorus riff

G|-----------------------|
D|-----------------------|
A|-----------------------|
E|--5-3-2-0--------------|

Chorus-

e|----------------------------------------------|
B|----------------------------------------------|
G|-------------4----4----4--4-------------------|
D|-------------4----4----4--4---4----4---4--4---|
A|-------------2----2----2--2---4----4---4--4---|
E|------------------------------2----2---2--2---|
   Chloroform girl how have you been?

e|----------------------------------------------|
B|----------------------------------------------|
G|----------4----4----4--4----------------------|
D|----------4----4----4--4---4----4---4--4------|
A|----------2----2----2--2---4----4---4--4------|
E|---------------------------2----2---2--2------|
    Don't let me catch you sleeping again

e|----------------------------------------------------------|
B|----------------------------------------------------------|
G|--------4----4----4--4-------------------2-2-22-22-22-2---|
D|--------4----4----4--4---4----4---4--4---2-2-22-22-22-2---|
A|--------2----2----2--2---4----4---4--4---0-0-00-00-00-0---|
E|-------------------------2----2---2--2--------------------|
    You're only alive because I like you


e|----------------------------------------------|
B|----------------------------------------------|
G|----------4----4----4--4----------------------|
D|----------4----4----4--4---4----4---4--4------|
A|----------2----2----2--2---4----4---4--4------|
E|---------------------------2----2---2--2------|
    It's been three years since you've seen the sunlight

e|----------------------------------------------|
B|----------------------------------------------|
G|----------4----4----4--4----------------------|
D|----------4----4----4--4---4----4---4--4------|
A|----------2----2----2--2---4----4---4--4------|
E|---------------------------2----2---2--2------|
          But I know you're having fun

e|----------------------------------------------------------|
B|----------------------------------------------------------|
G|--------4----4----4--4-------------------2-2-22-22-22-2---|
D|--------4----4----4--4---4----4---4--4---2-2-22-22-22-2---|
A|--------2----2----2--2---4----4---4--4---0-0-00-00-00-0---|
E|-------------------------2----2---2--2--------------------|
     Bound gagged and chained up in my basement


Verse-


e|-----------------------------------------------------------------------|
B|----3----------------------------3-------------------------------------|
G|----4----------------------------4-------------------------------------|
D|----4---------------4------------4----------------4--------------------|
A|----2---------------4------------2----------------4--------------------|
E|--------------------2-----------------------------2--------------------|
       You look just like a zombie, inches from dead and pretty

e|---------------------------------------------------------------------|
B|---3-----------------------------------------------------------------|
G|---4--------------------------------2-2-22-22-22-2-------------------|
D|---4----------------4---------------2-2-22-22-22-2-------------------|
A|---2----------------4---------------0-0-00-00-00-0-------------------|
E|--------------------2------------------------------------------------|
       With purple flowers in your hair

e|-----------------------------------------------------------------------|
B|----3----------------------------3-------------------------------------|
G|----4----------------------------4-------------------------------------|
D|----4---------------4------------4----------------4--------------------|
A|----2---------------4------------2----------------4--------------------|
E|--------------------2-----------------------------2--------------------|
        I hear the angels crying, just as the devil smiles

e|---------------------------------------------------------------------|
B|---3-----------------------------------------------------------------|
G|---4--------------------------------2-2-22-22-22-2-------------------|
D|---4----------------4---------------2-2-22-22-22-2-------------------|
A|---2----------------4---------------0-0-00-00-00-0-------------------|
E|--------------------2------------------------------------------------|
       A little peace will die tonight

Little bass line right before chorus


G|-----------------------|
D|-----------------------|
A|-----------------------|
E|--5-3-2-0--------------|

Chorus-

e|----------------------------------------------|
B|----------------------------------------------|
G|-------------4----4----4--4-------------------|
D|-------------4----4----4--4---4----4---4--4---|
A|-------------2----2----2--2---4----4---4--4---|
E|------------------------------2----2---2--2---|
   Chloroform girl how have you been?

e|----------------------------------------------|
B|----------------------------------------------|
G|----------4----4----4--4----------------------|
D|----------4----4----4--4---4----4---4--4------|
A|----------2----2----2--2---4----4---4--4------|
E|---------------------------2----2---2--2------|
    Don't let me catch you sleeping again

e|----------------------------------------------------------|
B|----------------------------------------------------------|
G|--------4----4----4--4-------------------2-2-22-22-22-2---|
D|--------4----4----4--4---4----4---4--4---2-2-22-22-22-2---|
A|--------2----2----2--2---4----4---4--4---0-0-00-00-00-0---|
E|-------------------------2----2---2--2--------------------|
    You're only alive because I like you


e|----------------------------------------------|
B|----------------------------------------------|
G|----------4----4----4--4----------------------|
D|----------4----4----4--4---4----4---4--4------|
A|----------2----2----2--2---4----4---4--4------|
E|---------------------------2----2---2--2------|
    It's been three years since you've seen the sunlight

e|----------------------------------------------|
B|----------------------------------------------|
G|----------4----4----4--4----------------------|
D|----------4----4----4--4---4----4---4--4------|
A|----------2----2----2--2---4----4---4--4------|
E|---------------------------2----2---2--2------|
          But I know you're having fun

e|----------------------------------------------------------|
B|----------------------------------------------------------|
G|--------4----4----4--4-------------------2-2-22-22-22-2---|
D|--------4----4----4--4---4----4---4--4---2-2-22-22-22-2---|
A|--------2----2----2--2---4----4---4--4---0-0-00-00-00-0---|
E|-------------------------2----2---2--2--------------------|
     Bound gagged and chained up in my basement

Bridge-

e|-----------------------------------------------------------|
B|-----3---3---33--------------------------------------------|
G|-----4---4---44-------------4---4----2---2-----------------|
D|-----4---4---44---4--4--44--4---4----2---2----5--5--4------|
A|-----2---2---22---4--4--44--2---2----0---0----5--5--4------|
E|------------------2--2--22--------------------3--3--2------|
     I hear the devil singing the most haunting melodies


e|---------------------------------------------------------------|
B|-----3---3---33------------------------------------------------|
G|-----4---4---44-------------4---4----2---2---------------------|
D|-----4---4---44---4--4--44--4---4----2---2----5--5--4--2-2-22--|
A|-----2---2---22---4--4--44--2---2----0---0----5--5--4--2-2-22--|
E|------------------2--2--22--------------------3--3--2--0-0-00--|
    I've got the most overwhelming feeling of more than exctasy

e|----------------------------------------|
B|----------------------------------------|
G|----------------------------------------|
D|--2-2-22------4---4---4--4--------------|
A|--2-2-22------4---4---4--4--------------|
E|--0-0-00------2---2---2--2--------------|
               Coming over me


Little bass line right before chorus


G|-----------------------|
D|-----------------------|
A|-----------------------|
E|--5-3-2-0--------------|

Chorus-

e|----------------------------------------------|
B|----------------------------------------------|
G|-------------4----4----4--4-------------------|
D|-------------4----4----4--4---4----4---4--4---|
A|-------------2----2----2--2---4----4---4--4---|
E|------------------------------2----2---2--2---|
   Chloroform girl how have you been?

e|----------------------------------------------|
B|----------------------------------------------|
G|----------4----4----4--4----------------------|
D|----------4----4----4--4---4----4---4--4------|
A|----------2----2----2--2---4----4---4--4------|
E|---------------------------2----2---2--2------|
    Don't let me catch you sleeping again

e|----------------------------------------------------------|
B|----------------------------------------------------------|
G|--------4----4----4--4-------------------2-2-22-22-22-2---|
D|--------4----4----4--4---4----4---4--4---2-2-22-22-22-2---|
A|--------2----2----2--2---4----4---4--4---0-0-00-00-00-0---|
E|-------------------------2----2---2--2--------------------|
    You're only alive because I like you


e|----------------------------------------------|
B|----------------------------------------------|
G|----------4----4----4--4----------------------|
D|----------4----4----4--4---4----4---4--4------|
A|----------2----2----2--2---4----4---4--4------|
E|---------------------------2----2---2--2------|
    It's been three years since you've seen the sunlight

e|----------------------------------------------|
B|----------------------------------------------|
G|----------4----4----4--4----------------------|
D|----------4----4----4--4---4----4---4--4------|
A|----------2----2----2--2---4----4---4--4------|
E|---------------------------2----2---2--2------|
          But I know you're having fun

e|----------------------------------------------------------|
B|----------------------------------------------------------|
G|--------4----4----4--4-------------------2-2-22-22-22-2---|
D|--------4----4----4--4---4----4---4--4---2-2-22-22-22-2---|
A|--------2----2----2--2---4----4---4--4---0-0-00-00-00-0---|
E|-------------------------2----2---2--2--------------------|
     Bound gagged and chained up in my basement


Ending

e|----------------------------------------------------------------------|
B|-----------------3----------------------------------------------------|
G|-----------------4----------------------------------------------------|
D|-----------------4----------------------------------------------------|
A|-----------------2----------------------------------------------------|
E|----------------------------------------------------------------------|
     Chloroform Girl


| /  slide up
| \  slide down
| h  hammer-on
| p  pull-off
| ~  vibrato
| +  harmonic
| x  Mute note
===============================================================================
Tap to rate this tab
 
# A B C D E F G H I J K L M N O P Q R S T U V W X Y Z