Song name
# A B C D E F G H I J K L M N O P Q R S T U V W X Y Z

Misc Unsigned Bands - Thomas Barse - I Love Being Me tab

Highlighted       Show chord diagrams
I search the internet for this song, but i can't find it so i just tabb'ed it myself . 
          -------------------------------------------------------------------------------
			     SONG NAME - Band Name
-------------------------------------------------------------------------------
Tabbed by: Steffen Paust (15)
Email:steffenpaust@hotmail.com

I search the internet for this song, but i can't find it so i just tabb'ed it myself . 


Tuning:Standard
 
Verse:
   C  C     C C  C     G  G     G G  G     F  F     F F  F   
e|-0--0-x---00--0-x---3--3-x---33--3-x---1--1-x---11--1-x---1--1-x---11--1-x--|
B|-1--1-x---11--1-x---0--0-x---00--0-x---1--1-x---11--1-x---1--1-x---11--1-x--|
G|-0--0-x---00--0-x---0--0-x---00--0-x---2--2-x---22--2-x---1--1-x---11--1-x--|
D|-2--2-x---22--2-x---0--0-x---00--0-x---3--3-x---33--3-x---3--3-x---33--3-x--|
A|-3--3-x---33--3-x---2--2-x---22--2-x---3--3-x---33--3-x---3--3-x---33--3-x--|
E|-3--3-x---33--3-x---3--3-x---33--3-x---1--1-x---11--1-x---1--1-x---11--1-x--|

That's the tabs for every verse in the song - 

Chorus:

   C  C  C C C C  G  G  G G G G   Am    Am   F  F  F F F F
e|-0--0--0000--3--3--3333--0--0--0000--1--1--1111--|
B|-1--1--1111--3--3--3333--1--1--1111--1--1--1111--|
G|-0--0--0000--0--0--0000--2--2--2222--2--2--2222--|  (Repeat x2)
D|-2--2--2222--0--0--0000--2--2--2222--3--3--3333--|
A|-3--3--3333--2--2--2222--0--0--0000--3--3--3333--|
E|-3--3--3333--3--3--3333--0--0--0000--1--1--1111--|



| /  slide up
| \  slide down
| h  hammer-on
| p  pull-off
| ~  vibrato
| +  harmonic
| x  Mute note

I hope you can use it. 
I hope some of you would leave a comment on my e-mail . 
Steffen :)
===============================================================================
Tap to rate this tab
 
# A B C D E F G H I J K L M N O P Q R S T U V W X Y Z