Song name
# A B C D E F G H I J K L M N O P Q R S T U V W X Y Z

Misc Unsigned Bands - Dynamic Fate - After It All tab

Intro/Verse
1 -------------------------------|
2 -------------------------------|
3 ----------3-5---------3-555789-|
4 ----------3-5---------3-555789-| (x3)
5 -5-7--5-8-----5-7--5-8---------|
6 0---0--------0---0-------------|
 Chorus/Outro
1 --------------------------------|
2 ---------567--------------------|
3 ---------567--------------------|
4 --88------------------22--------| (x4)
5 --55-------------85-35--3----35-|
6 00----2235------0--0--0---035---|

 Solo
1 5-8-5-6-7-8-13-55---------------------|
2 -5-8-5-6-7-8-13--55-------------------|
3 -----------------------------5-9-8-8--|
4 ------------------------------8-7-9-8-|
5 --------------------------------------|
6 --------------------------------------|
Tap to rate this tab
# A B C D E F G H I J K L M N O P Q R S T U V W X Y Z