Song name
# A B C D E F G H I J K L M N O P Q R S T U V W X Y Z

Misc Unsigned Bands - Retroscopic - Shotgun Of Mistakes tab

-------------------------------------------------------------------------------
			     SHOTGUN OF MISTAKES - Retroscopic
-------------------------------------------------------------------------------
Tabbed by: AvrgJOEMIKE
Email:mike_green@live.co.uk

Tuning: Standard
part 1 (x6)
Guitar 1 
e|---------------------------------------------------------------------------|
B|---------------------------------------------------------------------------|
G|---------------------------------------------------------------------------|
D|-------3-2-3-5-3-2-3------2h3------2h3-----3-----2-------------------------|
A|---0-0----------------1-1------1-1-----3-3---3-3---------------------------|
E|---------------------------------------------------------------------------|
    pm pm              pm pm    pm pm   pm pm pm pm

Guitar 2
e|---------------------------------------------------------------------------|
B|---------------------------------------------------------------------------|
G|---------------------3-3-------3-3-----5-5---5-5----2----------------------|
D|---------------------3-3-------3-3-----5-5---5-5----2----------------------|
A|---------------------1-1-------1-1-----3-3---3-3----0----------------------|
E|---------------------------------------------------------------------------|
                      pm pm     pm pm   pm pm  pm pm  ring--------------->

part 2 (x2)
Both Guitars
e|-------------------------------------------------||------------------------|
B|-------------------------------------------------||------------------------|
G|-----22222222---22222222---33333333---55555555---||-2-----2-2--------------|
D|-----22222222---22222222---33333333---55555555---||-2-----2-2--------------|
A|-----00000000---00000000---11111111---33333333---||-0-----0-0--------------|
E|-------------------------------------------------||------------------------|
                                                     ring-| ring------------->

part 3 (x4)
e|---------------------------------------------------------------------------|
B|---------------------------------------------------------------------------|
G|-------------5-------------------------------------------------------------|
D|-------3-2-3---3-2-3------2h3------2h3-------3-2-3-------------------------|
A|---0-0----------------1-1------1-1-----3-3---------------------------------|
E|---------------------------------------------------------------------------|
    pm pm              pm pm    pm pm   pm pm 

Guitar 2
e|---------------------------------------------------------------------------|
B|---------------------------------------------------------------------------|
G|---------------------3-3-------3-3-----5-5---5-5----2----------------------|
D|---------------------3-3-------3-3-----5-5---5-5----2----------------------|
A|---------------------1-1-------1-1-----3-3---3-3----0----------------------|
E|---------------------------------------------------------------------------|
                      pm pm     pm pm   pm pm  pm pm  ring--------------->
                       
part 4 (x2)
Both Guitars
e|---------------------------------------------------------------------------|
B|---------------------------------------------------------------------------|
G|-----2---2-2-2-2---2-2-2-----33333333---55555555---------------------------|
D|-----2---2-2-2-2---2-2-2-----33333333---55555555---------------------------|
A|-----0---0-0-0-0---0-0-0-----11111111---33333333---------------------------|
E|---------------------------------------------------------------------------|
          pm pm pm  pm pm pm 

Repeat part 2(x2)

Repeat part 3(x4)

Repeat part 4(x2)

Repeat part 2(x2)

Part 5
Guitar 1 (x4)                                  (Do this once at the 
                                               end of the last riff)
e|--------------------------|------------------------------------------------|
B|--------------------------|------------------------------------------------|
G|---55-55-5---77-77-7--2---|------------------------------------------------|
D|---33-33-3---55-55-5--2---|-------------------333-2-22-3-33-2-22-----------|
A|----------------------0---|------------------------------------------------|
E|--------------------------|------------------------------------------------|

Guitar 2
e|---------------------------------------------------------------------------|
B|---------------------------------------------------------------------------|
G|----------------------2----------------------------------------------------|
D|----------------------2----------------------------------------------------|
A|----------------------0----------------------------------------------------|
E|---------------------------------------------------------------------------|
                      ring----------->
Guitar 1 (x2)
e|---------------------------------------------------------------------------|
B|---------------------------------------------------------------------------|
G|--------------------------------------------------------5-------5----------|
D|-----3322332233223322-3322332233223322-3322332233223322---3-2-3---3-2-3----|
A|---0-----------------1----------------3------------------------------------|
E|---------------------------------------------------------------------------|

Guitar 2 (x1, after guitar 1's first bar)
e|---------------------------------------------------------------------------|
B|---------------------------------------------------------------------------|
G|---2-----------------3----------------5------------------------------------|
D|---2-----------------3----------------5------------------------------------|
A|---0-----------------1----------------3------------------------------------|
E|---------------------------------------------------------------------------|

Both guitars (x )                                       Guitar 1 only
e|----------------------------------------------------|----------------------|
B|----------------------------------------------------|----------------------|
G|---2-----------------3----------------5-------------|-5-------5------------|
D|---2-----------------3----------------5-------------|---3-2-3---3-2-3------|
A|---0-----------------1----------------3-------------|----------------------|
E|----------------------------------------------------|----------------------|

							On last bar
						     G|---5------------------|     
						     D|------3--2--3---------|

Repeat part 2 (x2)
Tap to rate this tab
# A B C D E F G H I J K L M N O P Q R S T U V W X Y Z