Song name
# A B C D E F G H I J K L M N O P Q R S T U V W X Y Z

Misc Unsigned Bands - Brec Burnett - For You tab

by: Brec Burnett

verse 1

e--------------------------------------------------------------------|
b--3--------3-----0------3--------3------------3--------3-----0------|
g-----0---------------------0-----------0---------0------------------|
d--------------------------------------------------------------------|
a--3-----3-----3--0------3-----3-----3---------3-----3-----3--0------|
e---------------------------------------0----------------------------|

verse 1 continued..

e-------------------------|
b--7--------7-----8-------|
g-----0-------------------|
d-------------------------|
a--7-----7-----7--8-------|
e-------------------------|

chorus

e------------------------------------------------|
b--3--------3------------7--------7--------------|
g-----0------------X4-------0------------X4------|
d------------------------------------------------|
a--3-----3-----3---------7-----7-----7-----------|
e------------------------------------------------| repeat X2

verse 2

e-----------------------------------------------------------------------|
b--10---------10------7--------7-----3--------3-----3--------3----------|
g------0-----------------0--------------0--------------0----------------|X2
d-----------------------------------------------------------------------|
a--10-----10------10--7-----7-----7--3-----3-----3--3-----3-----3-------|
e-----------------------------------------------------------------------|

verse 2 continued..

e--------------------------------------------------------------|
b--7--------7-----3--------3-----7--------7-----3--------3-----|
g-----0--------------0--------------0--------------0-----------|
d--------------------------------------------------------------|
a--7-----7-----7--3-----3-----3--7-----7-----7--3-----3-----3--|
e--------------------------------------------------------------|

verse 2 continued..

e--------------------------------------------------------------|
b--8--------8-----8--------8-----8--------8-----8--------8-----|
g-----0--------------0--------------0--------------0-----------|
d--------------------------------------------------------------|
a--8-----8-----8--8-----8-----8--8-----8-----8--8-----8-----8--|
e--------------------------------------------------------------|

chorus

e------------------------------------------------|
b--3--------3------------7--------7--------------|
g-----0------------X4-------0------------X4------|
d------------------------------------------------|
a--3-----3-----3---------7-----7-----7-----------|
e------------------------------------------------| repeat X2

verse 2

e-----------------------------------------------------------------------|
b--10---------10------7--------7-----3--------3-----3--------3----------|
g------0-----------------0--------------0--------------0----------------|X2
d-----------------------------------------------------------------------|
a--10-----10------10--7-----7-----7--3-----3-----3--3-----3-----3-------|
e-----------------------------------------------------------------------|

verse 2 continued..

e--------------------------------------------------------------|
b--7--------7-----3--------3-----7--------7-----3--------3-----|
g-----0--------------0--------------0--------------0-----------|
d--------------------------------------------------------------|
a--7-----7-----7--3-----3-----3--7-----7-----7--3-----3-----3--|
e--------------------------------------------------------------|

verse 2 continued..

e-----------------------------------------------------------------|
b--8--------8-----8--------8-----8--------8-----8--------8-----8--|
g-----0--------------0--------------0--------------0--------------|
d-----------------------------------------------------------------|
a--8-----8-----8--8-----8-----8--8-----8-----8--8-----8-----8--8--|
e-----------------------------------------------------------------|

verse 1

e--------------------------------------------------------------------|
b--3--------3-----0------3--------3------------3--------3-----0------|
g-----0---------------------0-----------0---------0------------------|
d--------------------------------------------------------------------|
a--3-----3-----3--0------3-----3-----3---------3-----3-----3--0------|
e---------------------------------------0----------------------------|

verse 1 continued..

e-------------------------|
b--7--------7-----8-------|
g-----0-------------------|
d-------------------------|
a--7-----7-----7--8-------|
e-------------------------|

verse 1 outro

e-----------------------------------------|
b--3----0----3---------3----0----7----8---|
g-----------------0-----------------------|
d-----------------------------------------|
a--3----0----3---------3----0----7----8---|
e-----------------0-----------------------|
Tap to rate this tab
# A B C D E F G H I J K L M N O P Q R S T U V W X Y Z